My Guitar Songbook
Good Morning  |  Sign In 
Blues Licks for Guitar (Lick 13) 

Lick Info  |  Tutorial  |  Tab  |  Rate
Blues Licks for Guitar (Lick 13) - Pluck/Play Guitar ( 4 )
 Key E - 4/4 Time
 Arranged By: Pluck/Play Guitar
 Audio File From: Tutorial
   MAJOR (Box 4)
    __   __   __   __   __   __   __ 
   |  | |  | |  | |  | |  | |  | |  |
e|--------------5-7-------------------|
B|-5vv-----7b--------7br-(7)5----5vv--|
G|-----------------------------6------|
D|------------------------------------|
A|------------------------------------|
E|------------------------------------|


*:·..·:*¨¨*:·..·:*¨¨*:·..·:*¨¨*:·..·:*¨


Key A (Transposed - Original Key: E)


   MAJOR (Box 4)
    __   __   __   __   __    __   __ 
   |  | |  | |  | |  | |  |  |  | |  |
e|-------------10-12-------------------|
B|10vv----12b-------12br(12)-10--10vv--|
G|-----------------------------11------|
D|-------------------------------------|
A|-------------------------------------|
E|-------------------------------------|
        
Lick Info  |  Tutorial  |  Tab (pdf)  |  Rate  | 
 
  Previous Lick  Previous | Next  Next Lick