+
- 
My Guitar Songbook
Good Evening  |  Sign In 
Descending Pulloff 

Descending Pulloff - Morphis.com
 Artist: Morphis.com
 Audio Src: Tutorial
 Rated: ( 8 )  | 

Key B - 4/4 Time

Key A (Transposed - Original Key B):
-----

   A
    _   _   _   _ 
   | | | | | | | |
e|-----------------|
B|-8p5---5---------|
G|-----7---7p5-----|
D|-------------7---|
A|-----------------|
E|-----------------| 


*:·..·:*¨¨*:·..·:*¨¨*:·..·:*¨¨*:·..·:


Key E (Transposed - Original Key B):
-----

   E
    _   _   _   _ 
   | | | | | | | |
e|-----------------|
B|-3p0---0---------|
G|-----2---2p0-----|
D|-------------2---|
A|-----------------|
E|-----------------|
 
Previous Lick  Previous | Next  Next Lick