+
- 
My Guitar Songbook
Good Evening  |  Sign In 
Reverse 3-in-a-line 

Reverse 3-in-a-line - Justin Sandercoe
 Arranged By: Justin Sandercoe
 Audio Src: Tutorial
 Rated: ( 3 )  | 

Key A - 4/4 Time

 Key A
-----

   A   
    _ _   _ _   _ _   _ _     _ _   _ _     _ 
   | | | | | | | | | | | |   | | | | | | | | |
e|-------------------------|-------5-----------|
B|-------------------5-----|-8p5-----8p5-8s10--|
G|-------5-----7p5-----7p5-|-----7-------------|
D|-7p5-----7p5-----7-------|-------------------|
A|-----7-------------------|-------------------|
E|-------------------------|-------------------| 


*:·..·:*¨¨*:·..·:*¨¨*:·..·:*¨¨*


Key E
-----

   E   
    _ _   _ _   _ _   _ _     _ _   _ _     _ 
   | | | | | | | | | | | |   | | | | | | | | |
e|-------------------------|-------0-----------|
B|-------------------0-----|-3p0-----3p0-3s5---|
G|-------0-----2p0-----2p0-|-----2-------------|
D|-2p0-----2p0-----2-------|-------------------|
A|-----2-------------------|-------------------|
E|-------------------------|-------------------|
Top
 
Previous Lick  Previous | Next  Next Lick