+
- 
My Guitar Songbook
Good Evening  |  Sign In 
Bent 3rd Chromatic 

Bent 3rd Chromatic - Justin Sandercoe
 Artist: Justin Sandercoe
 Audio Src: Tutorial
 Rated: ( 2 )  | 

Key A - 4/4 Time

   A  (3rd Chromatic)
       ___    __ __ ___          __    __
   |  |   |  |  |  |   |     |  |  |  |  |  |
e|----10-11-12-------------|------------------|
B|12b----------10-12br(12)-|10----10(10vv)----|
G|-------------------------|---11-------------|
D|-------------------------|------------------|
A|-------------------------|------------------|
E|-------------------------|------------------|


*:·..·:*¨¨*:·..·:*¨¨*:·..·:*¨¨*


Key E (Transposed - Original Key A):
-----

   E  (3rd Chromatic)
       __    __ __ ___        __    __
   |  |  |  |  |  |   |    | |  |  |  |  |
e|----5--6--7------------|-----------------|
B|-7b----------5--7br(7)-|-5----5-(5vv)----|
G|-----------------------|---6-------------|
D|-----------------------|-----------------|
A|-----------------------|-----------------|
E|-----------------------|-----------------|
 
Previous Lick  Previous | Next  Next Lick