+
- 
My Guitar Songbook
Good Evening  |  Sign In 
Rhythm Guitar for SRV's Pride...  

Info  |  Tutorial  |  Tab  |  Rate It  |  Share
Rhythm Guitar for SRV's Pride & Joy - Jody Worrell
 Arranged By: Jody Worrell
 Audio Src: Tutorial
 Rated: ( 4 )  | 

Key E - 4/4 Time

Key E
-----

   E7 
    _   _   _   _     _   _   _   _     _   _   _   _ 
   | | | | | | | |   | | | | | | | |   | | | | | | | |
e|-----------------|-----------------|-----------------|
B|-----------------|-----------------|-----------------|
G|-----------------|-----------------|-----------------|
D|-----------------|-----------------|-----------------|
A|-2-2-----2-2-4-4-|-2-2-----2-2-4-4-|-2-2-----2-2-4-4-|
E|-0-0-4-4---------|-0-0-4-4---------|-0-0-4-4---------|


   E7                A7
    _   _   _   _     _   _   _   _     _   _   _   _ 
   | | | | | | | |   | | | | | | | |   | | | | | | | |
e|-----------------|-----------------|-----------------|
B|-----------------|-----------------|-----------------|
G|-----------------|-----------------|-----------------|
D|-----------------|-2-2-----2-2-4-4-|-2-2-----2-2-4-4-|
A|-2-2-----2-2-4-4-|-0-0-4-4---------|-0-0-4-4---------|
E|-0-0-4-4---------|-----------------|-----------------|


   E7                                  B7
    _   _   _   _     _   _   _   _     _   _   _   _ 
   | | | | | | | |   | | | | | | | |   | | | | | | | |
e|-----------------|-----------------|-2-2-2-2-2-2-2-2-|
B|-----------------|-----------------|-0-0-0-0-0-0-0-0-|
G|-----------------|-----------------|-2-2-2-2-2-2-2-2-|
D|-----------------|-----------------|-1-1-1-1-1-1-1-1-|
A|-2-2-----2-2-4-4-|-2-2-----2-2-4-4-|-2-2-2-2-2-2-2-2-|
E|-0-0-4-4---------|-0-0-4-4---------|-----------------|


   A7                E7                B7
    _   _   _   _     _   _   _   _     _   _   _   _ 
   | | | | | | | |   | | | | | | | |   | | | | | | | |
e|-0-0-0-0-0-0-0-0-|-----------------|-----------------|
B|-2-2-2-2-2-2-2-2-|-----------------|-----------------|
G|-0-0-0-0-0-0-0-0-|-----------------|-----------------|
D|-2-2-2-2-2-2-2-2-|-----------------|-2-2-------------|
A|-0-0-0-0-0-0-0-0-|-2-2-----2-2-4-4-|-----4-4-2-2-----|
E|-----------------|-0-0-4-4---------|-------------4-4-|


*:·..·:*¨¨*:·..·:*¨¨*:·..·:*¨¨*:·..·:*¨������*


Key A (Transposed - Original Key E):
-----

   A7 
    _   _   _   _     _   _   _   _     _   _   _   _ 
   | | | | | | | |   | | | | | | | |   | | | | | | | |
e|-----------------|-----------------|-----------------|
B|-----------------|-----------------|-----------------|
G|-----------------|-----------------|-----------------|
D|-2-2-----2-2-4-4-|-2-2-----2-2-4-4-|-2-2-----2-2-4-4-|
A|-0-0-4-4---------|-0-0-4-4---------|-0-0-4-4---------|
E|-----------------|-----------------|-----------------|


   A7                D7
    _   _   _   _     _   _   _   _     _   _   _   _ 
   | | | | | | | |   | | | | | | | |   | | | | | | | |
e|-----------------|-----------------|-----------------|
B|-----------------|-3-3-----3-3-----|-3-3-----3-3-----|
G|-----------------|-2-2-4-4-2-2-4-4-|-2-2-4-4-2-2-4-4-|
D|-2-2-----2-2-4-4-|-----------------|-----------------|
A|-0-0-4-4---------|-----------------|-----------------|
E|-----------------|-----------------|-----------------|


   A7                                  E7
    _   _   _   _     _   _   _   _     _   _   _   _    
   | | | | | | | |   | | | | | | | |   | | | | | | | |   
e|-----------------|-----------------|-----------------|
B|-----------------|-----------------|-----------------|
G|-----------------|-----------------|-----------------|
D|-2-2-----2-2-4-4-|-2-2-----2-2-4-4-|-----------------|
A|-0-0-4-4---------|-0-0-4-4---------|-2-2-----2-2-4-4-|
E|-----------------|-----------------|-0-0-4-4---------|


   D7                A7                E7
    _   _   _   _     _   _   _   _     _   _   _   _ 
   | | | | | | | |   | | | | | | | |   | | | | | | | |
e|-----------------|-----------------|-----------------|
B|-3-3-------------|-----------------|-----------------|
G|-2-2-4-4-2-2-4-4-|-----------------|-----------------|
D|-----------------|-2-2-----2-2-4-4-|-----------------|
A|-----------------|-0-0-4-4---------|-2-2-----2-2-4-4-|
E|-----------------|-----------------|-0-0-4-4---------|
Top
 
Previous Lick  Previous | Next  Next Lick