My Guitar Songbook
Good Morning  |  Sign In 
Bookends Theme 

Song Info  |  Tab  |  Rate
Bookends Theme - Simon and Garfunkel ( 3 )
 Capo 2nd Fret - 3/8 Time
 Audio File From: willc's Music Library

Melody:


   | | |   | | |   | | |   | | |   | | |  
e|-------|-------|-------|-------|-------|
B|-5-7-8-|-5-7-8-|-5-7-8-|-5-7-8-|-7-3---|
G|-------|-------|-------|-------|-------|
D|-5-7-9-|-5-7-9-|-5-7-9-|-5-7-9-|-7-4---|
A|-------|-------|-------|-------|-----5-|
E|-------|-------|-------|-------|-------|

                    _   _   _   _     _   _   _   _ 
   | | |   | | |   | | | | | | | |   | | | | | | | |
e|-------|-------|-----------------|-----------------|
B|-3-----|-3-7-3-|-5-3-0---3---5-3-|-7-3-2-3(3)7-3-7-|
G|-------|-------|-----------------|-----------------|
D|-4-----|-4-7---|-5-5-0-5---5-----|-7-4-0-4(4)0-4-7-|
A|(5)----|(5)----|-----------------|-----------------|
E|-------|-------|-----------------|-----------------|


Time it was and what a time it was it was
A time of innocence, a time of confidences.

Long ago it must be, I have a photograph.
Preserve your memories, they're all that's left you...
        
Song Info  |  Tab (pdf)  |  Rate  | 
 
  Previous Song  Previous | Next  Next Song