+
- 
My Guitar Songbook
Good Evening  |  Sign In 
Greensleeves  

Info  |  Tab  |  Rate It  |  Share
Greensleeves - Unknown
  Artist: Unknown
 Audio Src: willc's Music Library
 Rated: ( 3 )  | 

Standard Tuning - 3/4 Time

Verse:
------

  Am            Am        G
   _               _
    |   | | |   | | | |   | | |   | | |  
e|----|-------|-0---1-0-|-------|-------|
B|----|-1---3-|-1-------|-3---0-|-----0-|
G|--2-|-2-----|-2-------|-0-----|-0h2---|
D|----|-2-----|-2-------|-0-----|-0-----|
A|----|---0---|---0-----|-2-----|-2-----|
E|----|-------|---------|---3---|-3-----|

   F               E7

   | | |   | | |   | | |   | | |
e|-------|-------|-------|---0---|
B|-1-----|-------|-0-----|---0---|
G|-2---2-|-2-1-2-|-1---1-|---1---|
D|-3-----|-3-----|-0-----|-2-----|
A|-------|-------|-2-----|-------|
E|---1---|-------|---0---|-------|

  Am                      G
   _               _
    |   | | |   | | | |   | | |   | | |
e|----|-------|-0---1-0-|-------|-------|
B|----|-1---3-|-1-------|-3---0-|-----0-|
G|--2-|-2-----|-2-------|-0-----|-0h2---|
D|----|-2-----|-2-------|-0-----|-0-----|
A|----|---0---|---0-----|-2-----|-2-----|
E|----|-------|---------|---3---|-3-----|

   F       E7      Am

   | | |   | | |   | | |   | | |
e|-------|-------|-------|---0-0-|
B|-1-0---|-------|-------|---1-1-|
G|-2---2-|-1---1-|-2-----|---2-2-|
D|-3-----|-0-4---|---2---|-------|
A|-------|-2-----|-----3-|-0-----|
E|-------|-0-----|-------|-------|


Chorus:
------

   C                 G
              _
   | | |   | | | |   | | |   | | |
e|-3-----|-3---2-0-|-------|-------|
B|---1-1-|-1-------|-3---0-|-----0-|
G|---0-0-|-0-------|-0-----|-0h2---|
D|---2-2-|-2-------|-0-----|-0-----|
A|---3-3-|---3-----|-2-----|-2-----|
E|-------|---------|---3---|-3-----|

   F               E7

   | | |   | | |   | | |   | | |
e|-------|-------|-------|---0-0-|
B|-1-----|-------|-0-----|---0-0-|
G|-2-----|-2-1-2-|-1---1-|---1-1-|
D|-3-----|-3-----|-0-----|-2-----|
A|-------|-------|-2-----|-------|
E|---1-1-|-------|---0---|-------|

   C                 G
              _
   | | |   | | | |   | | |   | | |
e|-3-----|-3---2-0-|-------|-------|
B|---1-1-|-1-------|-3---0-|-----0-|
G|---0-0-|-0-------|-0-----|-0h2---|
D|---2-2-|-2-------|-0-----|-0-----|
A|---3-3-|---3-----|-2-----|-2-----|
E|-------|---------|---3---|-3-----|

   F       E7        Am
              _
   | | |   | | | |   | | |   | | |
e|-------|---------|-------|-0-----|
B|-1-0---|-0-------|-------|-1-----|
G|-2---2-|-1-----1-|-2-----|-2-----|
D|-3-----|-0---4---|---2---|-2-----|
A|-------|-2-------|-----3-|-0-----|
E|-------|---0-----|-------|-------|



Am       '         G     '
Alas, my love, you do me wrong,
   F       '       E7        '
To cast me out discourteously.
    Am      '         G    ' 
When I have loved you so long,
  F        E7      Am     '
Delighting in your company.


Chorus:

C+g    '         G      '  
Greensleeves was my delight
F      '         E7     '
Greensleeves was all my joy,
C+g    '         G           '  
Greensleeves was my heart of gold,
    F           E7        Am     '
And who but my lady Greensleeves. 


Your vows you've broken, like my heart,
Oh, why did you so enrapture me?
Now I remain in a world apart
But my heart remains in captivity.

Chorus

I have been ready at your hand,
To grant whatever you would crave,
I have both wagered life and land,
Your love and good-will for to have.

Chorus

If you intend thus to disdain,
It does the more enrapture me,
And even so, I still remain
A lover in captivity.

Chorus

My men were clothed all in green,
And they did ever wait on thee;
All this was gallant to be seen,
And yet thou wouldst not love me.

Chorus

Thou couldst desire no earthly thing,
But still thou hadst it readily.
Thy music still to play and sing;
And yet thou wouldst not love me.

Chorus

Well, I will pray to God on high,
That thou my constancy mayst see,
And that yet once before I die,
Thou wilt vouchsafe to love me.

Chorus

Ah, Greensleeves, now farewell, adieu,
To God I pray to prosper thee,
For I am still thy lover true,
Come once again and love me.

Chorus
Top
 
Previous Song  Previous | Next  Next Song