A +
A - 


Top
My Guitar Songbook
Good Afternoon  |  Sign In 
Reason To Believe (Fingerstyle)  
 View:  Info  |  Tutorial  |  Tab  |  Rate  |  Share
Reason To Believe (Fingerstyle) - lonelypicker       mp3
 Song Info
  Artist: Rod Stewart
 Tutorial & Tab: lonelypicker
  Audio Clip from the Tutorial
 Rated: ( 1 ) |

 

Standard Tuning - 4/4 Time
Verse 1:
-------
                             G
    _     _         _           _   _   _ 
   | | | | | |   | | | | |   | | | | | | |
e|-------------|-0-0-------|---------------|
B|-0-3---3-----|-----3---1-|-0-------0-----|
G|-0-------0---|-----------|-----0-------0-|
D|-------------|-0---------|---0-------0---|
A|-------------|-----------|---------------|
E|-0-----------|-----------|-3-----3-------|
  If I listened long enough to you            

   G             C               D/F#
      _     _     _   _   _         _   _   _
   | | | | | |   | | | | | | |   | | | | | | |
e|-------------|-------------0-|---------------|
B|-------0-3-1-|-------3-------|-3-----3-1---0-|
G|-----0-------|---0-------0---|-----2---------|
D|---0---------|-----2---------|---0-------0---|
A|-------------|-3-------3-----|---------------|
E|-3-----3-----|---------------|-2-----2-------|
     I'd find a way to believe that   it's all

   G                                 A
    _   _   _   _       _   _   _     _   _   _   _
   | | | | | | | |   | | | | | | |   | | | | | | | |
e|-----------------|---------------|-----------------|
B|-----------0-----|---------0-----|-2-2-------2-----|
G|---0---0-------0-|-----0-------0-|-2-2---2-------2-|
D|-----0-------0---|---0-------0---|-----2-------2---|
A|-----------------|---------------|-0-------0-------|
E|-3-------3-------|-3-----3-------|-----------------|
   true                               Knowing

   D                         C
                _   _   _     _   _   _
   | | | |   | | | | | | |   | | | | | | |
e|-----5-3-|-2---------3-0-|---------------|
B|---2-----|-----3---------|-------3-----1-|
G|---2-6-4-|---2-----2-----|---0-------0---|
D|---2-----|-0-----0-------|-----2---------|
A|-0-------|---------------|-3-------3-----|
E|---------|---------------|---------------|
  that you lied straight   faced    while I

   G                             Em
    _   _   _   _       _           _   _   _     
   | | | | | | | |   | | | | |   | | | | | | |   
e|-----------------|-----------|-0-------------|
B|-3-0-------0-----|-------0-3-|-------------0-|
G|-0-----0-------0-|-----0-----|-----0-----0---|
D|-----0-------0---|---0-----0-|---2-----2-----|
A|-----------------|-----------|---------------|
E|-3-------3-------|-3-----3---|-0-----0-------|
    cried               Still I look to  find a

   C                 D
    _   _   _   _     _   _   _   _       _ 
   | | | | | | | |   | | | | | | | |   | | | | |
e|-----------------|-------2---------|-------0-3-|
B|-------------0---|-----3-------3---|-----3-----|
G|h2-0---0-------2-|---2-------2---2-|---2-------|
D|-----2-----2-----|-0-------0-------|-0-----0---|
A|-3-------3-------|-----------------|-----------|
E|-----------------|-----------------|-----------|
   reason to        believe


Chorus:
------

  C                D              Em
      _   _   _       _   _         _   _   _
   | | | | | | |   | | | | | |   | | | | | | |
e|-0---------0-3-|-2---0-------|---------------|
B|-1-------------|-3-------3---|-0-----------0-|
G|-----0---0-----|---2-------2-|-----0-----0---|
D|---2-----------|-0-----0-----|---2-----2-----|
A|-3-----3-------|-------------|---------------|
E|---------------|-------------|-0-----0-------|
   Someone like   you makes it hard to live w/o 

   D           D         C               D 
      _                     _   _   _     _   _
   | | | | |   | | | |   | | | | | | |   | | | | | |
e|-----0-----|-----0-3-|-0---------0-3-|-2-0---------|
B|---3-------|---3-----|-1-------------|-----3-3-----|
G|-------2---|---2-----|-----0---0-----|-----------2-|
D|-0---------|-0---0---|---2-----------|-0-------0---|
A|---------0-|---------|-3-----3-------|-------------|
E|-----------|---------|---------------|-------------|
 somebody else Someone like you makes it easy to give

    Em               D
    _   _   _   _     _   _   _   _     _   _   _
   | | | | | | | |   | | | | | | | |   | | | | | | |
e|-----------------|---0-----------0-|-3-----2-------|
B|---0-------0-----|-------3-----3---|---3---------3-|
G|-------2-------0-|-----2-----2-----|-----2-----2---|
D|-----2-------2---|-0-------0-------|-0-------0-----|
A|-----------------|-----------------|---------------|
E|-0-------0-------|-----------------|---------------|
   never thinking   about myself


Verse 2:
-------

   G                 D               G
    _   _   _   _     _   _   _         _   _   _
   | | | | | | | |   | | | | | | |   | | | | | | |
e|---------------0-|-----0---------|---------------|
B|-0-3-----3-------|-------3-----1-|-0-------0-----|
G|-------0---0-----|---2-------2---|-----0-------0-|
D|-----0-------0---|-0-------0-----|---0-------0---|
A|-----------------|---------------|---------------|
E|-3-------3-------|---------------|-3-----3-------|
  If I gave you     time to change my mind

   G              C               D/F#
      _   _       _   _   _         _   _   _
   | | | | | |   | | | | | | |   | | | | | | |
e|-------------|-------------0-|---------------|
B|-------0---3-|-1-----3-------|-3-----3---1-0-|
G|-----0-----0-|---0-------0---|-----2---2-----|
D|---0-----0---|-----2---------|---0-----------|
A|-------------|-3-------3-----|---------------|
E|-3-----3-----|---------------|-2-----2-------|
      I'd find a way      to leave the past behind

   G                                 A
    _   _   _   _       _   _   _     _   _   _   _
   | | | | | | | |   | | | | | | |   | | | | | | | |
e|-----------------|---------------|-----------------|
B|-----------0-----|---------0-----|-2-2-------2-----|
G|---0---0-------0-|-----0-------0-|-2-2---2-------2-|
D|-----0-------0---|---0-------0---|-----2-------2---|
A|-----------------|---------------|-0-------0-------|
E|-3-------3-------|-3-----3-------|-----------------|
                                     Knowing 

   A           D             C
      _             _   _     _   _   _
   | | | | |   | | | | | |   | | | | | | |
e|-------5-3-|-2---------3-|-0h2-0---------|
B|-----------|-----3-------|-------3-----1-|
G|-----2---4-|---2-----2---|-----------0---|
D|---2-------|-0-----0-----|---------------|
A|-0-----0---|-------------|-3-------3-----|
E|-----------|-------------|---------------|
    that you lied straight faced   while I

    G                              Em
    _   _   _   _       _   _         _   _   _
   | | | | | | | |   | | | | | |   | | | | | | |
e|-----------------|-------------|-0-------------|
B|-3-0-------0-----|-------0-3---|-------------0-|
G|-0-----0-------0-|-----0-------|-----0-----0---|
D|-----0-------0---|---0-------0-|---2-----2-----|
A|-----------------|-------------|---------------|
E|-3-------3-------|-3-----3-----|-0-----0-------|
   cried                  Still I look to 

   C                 D
    _   _   _   _     _   _   _   _       _
   | | | | | | | |   | | | | | | | |   | | | | |
e|-----------------|-------2---------|-------0-3-|
B|-------------0---|-----3-------3---|-----3-----|
G|-2-0---0-------2-|---2-------2---2-|---2-------|
D|-----2-----2-----|-0-------0-------|-0-----0---|
A|-3-------3-------|-----------------|-----------|
E|-----------------|-----------------|-----------|
   find a reason to  believe              Still I


Outro: (3 times)
----

   Em              C                 D
      _   _   _     _   _   _   _     _   _   _   _
   | | | | | | |   | | | | | | | |   | | | | | | | |
e|-0-------------|-----------------|-------2---------|
B|-------------0-|-------------0---|-----3-------3---|
G|-----0-----0---|-2-0---0-------2-|---2-------2---2-|
D|---2-----2-----|-----2-----2-----|-0-------0-------|
A|---------------|-3-------3-------|-----------------|
E|-0-----0-------|-----------------|-----------------|
  look to find a reason to believe

   D                   G
    _   _   _   _
   | | | | | | | |     | | | |
e|-3-----2-------2-| |-3-------|
B|---3---------3---| |-3-------|
G|-----2-----2-----| |-0-------|
D|-0---------------| |---------|
A|---------0-------| |---------|
E|-----------------| |-3-------|

...................


Verse 1:
-------

G             D              G   '
If I listened long enough to you
           C        D
I'd find a way to believe that
G           '
it's all true
A                 D              '
Knowing, that you lied straight
C             G   '
faced while I cried
        Em             C           D
Still I look to find a reason to believe


Chorus:
------
 
             C            D
Someone like you makes it hard to live
Em  D                '
without somebody else
             C            D
Someone like you makes it easy to give 
Em              D         '
never thinking about myself
 

Verse 2:
-------

G             D                 G    '
If I gave you time to change my mind
           C      D                G    '
I'd find a way to leave the past behind
A                 D             
Knowing, that you lied straight 
C             G     '
faced while I cried
        Em             C           D     '
Still I look to find a reason to believe
 

Chorus:
------
 
             C            D
Someone like you makes it hard to live
Em         D          '
without somebody else
             C            D
Someone like you makes it easy to give 
Em              D         '
never thinking about myself
 

Verse 1:
-------

G             D              G
If I listened long enough to you
           C        D
I'd find a way to believe that
G
it's all true
A                 D
Knowing, that you lied straight
C             G
faced while I cried
        Em             C           D     '
Still I look to find a reason to believe


Outro: (3 times)
-----
 
        Em             C           D     '
Still I look to find a reason to believe
Previous Song  Previous | Next  Next Song