A +
A - 


Top
My Guitar Songbook
Good Evening  |  Sign In 
Paradise (Fingerstyle)  
  Info  |  Tutorial  |  Tab (PDF)  |  Rate  |  Share
Paradise (Fingerstyle) - Helmut Bickel       mp3
 Song Info
  Artist: John Prine
 Tutorial & Tab: Helmut Bickel
  Audio Clip from the Tutorial
 Rated: ( 1 ) |

 

Capo 2nd Fret - 3/4 Time
Intro/Chorus:
------------

   C                         F             C
      _   _     _   _   _     _   _   _       _   _
   | | | | |   | | | | | |   | | | | | |   | | | | |
e|---*-*-*-*-|-----*-*-*-*-|-----*-*-*-*-|---*-*-*-*-|
B|---*-*-*-*-|-----*-*-*-*-|-----*-*-*-*-|---*-*-*-*-|
G|---*-*-*-*-|-----*-*-*-*-|-----*-*-*-*-|---*-*-*-*-|
D|---*---*---|-0h2-*---*---|-0h3-*---*---|---*---*---|
A|-3---------|-------------|-------------|-3---------|
E|-----------|-------------|-------------|-----------|

   C                         G7      C
      _   _     _   _   _               _   _         _
   | | | | |   | | | | | |   | | |   | | | | |   | | | |
e|---*-*-*-*-|-----*-*-*-*-|-------|---*-*-*-*-|---------|
B|---*-*-*-*-|-----*-*-*-*-|-------|---*-*-*-*-|-------1-|
G|---*-*-*-*-|-----*-*-*-*-|-------|---*-*-*-*-|---------|
D|---*---*---|-0h2-*---*---|-------|---*---*---|---------|
A|-3---------|-------------|---0-2-|-3---------|-3-------|
E|-----------|-------------|-3-----|-----------|---------|


Verses:
------

   C                 F       C
        _                     _ 
   | | | |   | | |   | | |   | | | |
e|-0-3---3-|-3-0-3-|-5-5-5-|-3-0-----|
B|-1-------|-------|-------|-1-----1-|
G|---------|-------|---5-5-|---------|
D|---2-2---|---2-2-|-7-----|-----2-2-|
A|-3-------|-3-----|-------|-3-------|
E|---------|-------|-------|---------|

   C                   G         C
    _         _         _                     _ 
   | | | |   | | | |   | | | |   | | |   | | | |
e|-0-3---3-|-3-0-----|---------|-------|---------|
B|-1-------|-1-----1-|-3-1---0-|-1-----|-------1-|
G|---------|---------|---------|-------|---------|
D|-----2-2-|-----2-2-|-----0-0-|---2-2-|---------|
A|-3-------|-3-------|---------|-3-----|-3-------|
E|---------|---------|-3-------|-------|---------|


Verse 1:
-------

     C        '       F            C
When I was a child my family would travel,
     C              '             G7           C     
Down to Western Kentucky where my parents were born
     C                 '                F       C
And there's a backwards old town that's often remembered,
     C        '       G7           C    '
So many times that my memories are worn.


Chorus:
------

    C               '               F          C
And daddy won't you take me back to Muhlenberg County,
    C               '         G7       C
Down by the Green River where Paradise lay
     C                '                F       C
Well, I'm sorry my son, but you're too late in asking,
    C              '         G7         C   '
Mr. Peabody's coal train has hauled it away


Verse 2:
-------

Well, sometimes we'd travel right down the Green River
To the abandoned old prison down by Airdrie Hill
Where the air smelled like snakes we'd shoot with our pistols
But empty pop bottles was all we would kill

Chorus:
------

And Daddy, won't you take me back to Muhlenberg County?
Down by the Green River where Paradise lay
Well, I'm sorry my son, but you're too late in asking
Mister Peabody's coal train has hauled it away

Verse 3:
-------

Then the coal company came with the world's largest shovel
And they tortured the timber and stripped all the land
Well, they dug for their coal till the land was forsaken
Then they wrote it all down as the progress of man

Chorus:
------

And Daddy, won't you take me back to Muhlenberg County?
Down by the Green River where Paradise lay
Well, I'm sorry my son, but you're too late in asking
Mister Peabody's coal train has hauled it away

Verse 4:
-------

When I die, let my ashes float down the Green River
Let my soul roll on up to the Rochester Dam
I'll be halfway to Heaven with Paradise waitin'
Just five miles away from wherever I am

Chorus:
------

And Daddy, won't you take me back to Muhlenberg County?
Down by the Green River where Paradise lay
Well, I'm sorry my son, but you're too late in asking
Mister Peabody's coal train has hauled it away
Previous Song  Previous | Next  Next Song