A +
A - 


Top
My Guitar Songbook
Good Afternoon  |  Sign In 
Amen (Fingerstyle)  
 View:  Info  |  Tutorial  |  Tab  |  Rate  |  Share
Amen (Fingerstyle) - Helmut Bickel       mp3
 Song Info
  Artist: Wings Over Jordan Choir
 Tutorial & Tab: Helmut Bickel
  Audio Clip from the Tutorial
 Rated: ( 1 ) |

 

Capo 2nd Fret - 4/4 Time
Intro:
-----

   G  (3 times)  ||
      _   _   _
   | | | | | | |   | | | |
e|---------------|---------|
B|---------0-----|---------|
G|-----0-------0-|---------|
D|---0-------0---|---------|
A|---------------|---------|
E|-3-----3-------|-3-------|


Melody:
------

   G
        _           _           _           _
   | | | | |   | | | | |   | | | | |   | | | | |
e|-----------|-----------|-----------|-----------|
B|-----------|-----------|-0---------|-0---------|
G|-0---------|-0-----0---|-0-----2-0-|-0-----0---|
D|---0---2-0-|---0-----0-|---0-----0-|---0-----0-|
A|-----------|-----------|-----------|-----------|
E|-3---3-----|-3---3-----|-3---3-----|-3---3-----|
  A           men,         A          men,

   G             C     G   D     G

   | | | |   | | | |   | | | |   | | | |
e|-------0-|---------|---------|---------|
B|-3-----0-|-3---1---|-0-------|---------|
G|-0-------|---------|-0---2---|-0-------|
D|---0---0-|---0---2-|---0---0-|---------|
A|---------|-----3---|---------|---------|
E|-3---3---|-3-------|-3---2---|-3-------|
   A     A  men, A    men, A    men



A-men, A-men, A A-men, A-men, A-men
(Sing continuously under the verses)
Amen, amen, amen, amen, amen

A-men, A-men, 
A A-men, A-men, A-men

(Sing it over)
A-men, A-men, 
A A-men, A-men, A-men

Verse 1:
-------

(See the little baby) Amen
(wrapped in a manger) Amen
(on Christmas morning) A A-men, A-men, A-men

(See Him in the temple) Amen
(talkin’ with the elders) Amen
(who marveled at His wisdom) A A-men, A-men, A-men

Chorus:
------

A-men, A-men, 
A A-men, A-men, A-men

Verse 2:
-------

(See Him at the Jordan) Amen
(where John was baptizin’) Amen
(and savin’ all sinners) A A-men, A-men, A-men

(See Him at the seaside) Amen
(talkin’ to the fishermen) Amen
(and makin’ them disciples) A A-men, A-men, A-men

Chorus:
------

A-men, A-men, 
A A-men, A-men, A-men

Verse 3:
-------

(Marchin in Jerusalem) Amen
(over palm branches) Amen
(in pomp and splendor) A A-men, A-men, A-men

(See Him in the garden) Amen
(prayin’ to His Father) Amen
(in deepest sorrow) A A-men, A-men, A-men

Chorus:
------

A-men, A-men, 
A A-men, A-men, A-men

Verse 4:
-------

(Led before Pilate) Amen
(then they crucified Him) Amen
(but He rose on Easter), A A-men, A-men, A-men

(Hallelujah) Amen
(He died to save us) Amen
(and He lives forever) A A-men, A-men, A-men
Previous Song  Previous | Next  Next Song