+
- 
My Guitar Songbook
Good Morning  |  Sign In 
Fur Elise

About  |  Tutorial  |  Tab  |  Rate It  |  Share
Fur Elise - Helmut Bickel
Original Artist: Ludwig van Beethoven
Song arranged by Helmut Bickel
Audio clip from the Tutorial
About this Song
Rated: ( 1 )  | 

 

Capo 4th Fret - 3/4 Time

                        Am            E             Am
    _     _   _   _     _ _   _ _     _ _   _ _     _ _     _
   | |   | | | | | |   | | | | | |   | | | | | |   | | | | | |
e|-0---|-0---0-------|-------------|-------------|---------0---|
B|---4-|---4---0-3-1-|-------------|-0---------0-|-1---------4-|
G|-----|-------------|-2---2-----2-|-----1---1---|-----2-------|
D|-----|-------------|---2-----2---|---2---2-----|---2---------|
A|-----|-------------|-0-----3-----|-------------|-0-----------|
E|-----|-------------|-------------|-0-----------|-------------|

   Am                          E               Am
    _   _   _     _ _   _ _     _ _ _   ___     _ _     _
   | | | | | |   | | | | | |   | | | | |   |   | | | | | |
e|-0---0-------|-------------|---------------|---------0---|
B|---4---0-3-1-|-------------|-0-----0-0h1-0-|-----------4-|
G|-------------|-2---2-----2-|-----1---------|-2---2-------|
D|-------------|---2-----2---|---2-----------|---2---------|
A|-------------|-0-----3-----|---------------|-0-----------|
E|-------------|-------------|-0-------------|-------------|

            2nd: Am            E             Am
    _   _   _     _ _   _ _     _ _   _ _     _ _     _
   | | | | | |   | | | | | |   | | | | | |   | | | | | |
e|-0---0-------|-------------|-------------|---------0---|
B|---4---0-3-1-|-------------|-0---------0-|-1---------4-|
G|-------------|-2---2-----2-|-----1---1---|-----2-------|
D|-------------|---2-----2---|---2---2-----|---2---------|
A|-------------|-0-----3-----|-------------|-0-----------|
E|-------------|-------------|-0-----------|-------------|

   Am                          E               Am
    _   _   _     _ _   _ _     _ _ _   ___     _ _ _   _
   | | | | | |   | | | | | |   | | | | |   |   | | | | | |
e|-0---0-------|-------------|---------------|-------------|
B|---4---0-3-1-|-------------|-0-----0-0h1-0-|-------0-1-3-|
G|-------------|-2---2-----2-|-----1---------|-2---2-------|
D|-------------|---2-----2---|---2-----------|---2---------|
A|-------------|-0-----3-----|---------------|-0-----------|
E|-------------|-------------|-0-------------|-------------|

   C             G             Am            E
    _ _ _   _     _ _ _   _     _   _   _
   | | | | | |   | | | | | |   | | | | | |   | | |
e|-0-------1-0-|---------0---|-------------|-------|
B|-------1-----|-3-----3---3-|-1-----1-3-1-|-0-----|
G|-----0-------|-----0-------|-----2-------|-------|
D|---2---------|---0---------|---2---------|-------|
A|-3-----------|-2-----------|-0-----------|-------|
E|-------------|-------------|-------------|-0-----|

                              Am
     _   _   _   _   _   _     _   _
    | | | | | | | | | | | |   | | | |
e|-12---0---0---0---0---0---|-0---------------|
B|----4---4---4---4---4---4-|---0-3-1---------|
G|--------------------------|-----------------|
D|--------------------------|-----------------|
A|--------------------------|-----------------|
E|--------------------------|-----------------|
Top
Previous Song  Previous | Next  Next Song