+
- 
My Guitar Songbook
Good Morning  |  Sign In 
Annie's Song (Fingerstyle)

About  |  Tutorial  |  Tab  |  Rate It  |  Share
Annie's Song (Fingerstyle) - Helmut Bickel
Original Artist: John Denver 
Song arranged by Helmut Bickel
Audio clip from the Tutorial
About this Song
Rated: ( 1 )  | 

 

Capo 2nd Fret - 3/4 Time

Intro:
-----

   C
      _   _         _   _
   | | | | |     | | | | |
e|-----------|-------------|
B|-----1---1-|-------1---1-|
G|---0---0---|-----0---0---| (3 times)
D|-----------|2h3----------|
A|-3---------|-------------|
E|-----------|-------------|


Verses 1, 2 & 3:
---------------

   C               F         G
                      _       
   | | |   | | |   | | | |   | | |
e|-------|-------|---------|-------|
B|-1---1-|-1-0---|-1-----1-|-0-----|
G|-0-----|-0---2-|-2---2---|-0---0-|
D|-------|-------|---3-----|---0---|
A|-3-----|-3-----|---------|-------|
E|-------|-------|-1-------|-3-----|
 1.    You fill up my  sen   ses
 2.    Come let me love you
 3.    Humm... Humm 

   Am        F       C       Am
        _
   | | | |   | | |   | | |   | | |
e|---------|-------|-------|-------|
B|---------|---0-1-|-------|-------|
G|-----2-2-|-2-----|-0-----|-------|
D|-----2---|---3---|---2---|-------|
A|-0-------|-------|-3---2-|-0-----|
E|---------|-1-----|-------|-------|
 1. Like a night in a forest
 2. Let me give my life to you
 3. Humm... Humm 

   G       F         Em      Dm
              _
   | | |   | | | |   | | |   | | |
e|-------|---------|-------|-------|
B|-----0-|-1-----1-|-0-----|---0-1-|
G|-0-2---|-2---2---|-0---0-|-2-----|
D|-0-----|---3-----|---2---|-0-----|
A|-------|---------|-------|-------|
E|-3-----|-1-------|-0-----|-------|
 1. Like the mountains in springtime
 2. Let me drown in your laughter Let me
 3. Humm... Humm 

   G
      _           _
   | | | |   |   | | |
e|---------|-----------|
B|-0-----0-|-0h1-----1-|
G|-0---0---|-------0---|
D|---0-----|-----0-----|
A|---------|-----------|
E|-3-------|-3---------|
 1. Like a walk in the rain
 2. Die in your arms
 3. Humm... Humm

   G               F         G
                      _
   | | |   | | |   | | | |   | | |
e|-------|-------|---------|-------|
B|-0---1-|-1-0---|-1-----1-|-0-----|
G|-0-----|-0---2-|-2---2---|-0---0-|
D|-------|-------|---3-----|---0---|
A|-------|-------|---------|-------|
E|-3-----|-3-----|-1-------|-3-----|
 1. Like a storm in the desert
 2. Let me lay down beside you
 3. Humm... Humm 

   Am        F       C       Am
        _                    
   | | | |   | | |   | | |   | | |
e|---------|-------|-------|-------|
B|---------|---0-1-|-------|-------|
G|-----2-2-|-2-----|-0-----|-------|
D|-----2---|---3---|---2---|-------|
A|-0-------|-------|-3---2-|-0-----|
E|---------|-1-----|-------|-------|
 1. Like a sleepy blue ocean
 2. Let me always be with you
 3. Let me give my life to you

   G       F         Em      G
              _
   | | |   | | | |   | | |   | | |
e|-------|---------|-------|-------|
B|-----0-|-1-----1-|-0-----|-0-1-3-|
G|-0-2---|-2---2---|-0---0-|-0-0-0-|
D|-0-----|---3-----|---2---|---0-0-|
A|-------|---------|-------|-------|
E|-3-----|-1-------|-0-----|-3-----|
 1. You fill up my senses  Come fill me
 2. Come let me love you   Come love me
 3. Come let me love you,  Come love me

   C
      _   _         _   _
   | | | | |     | | | | |
e|-----------|-------------|
B|-----1---1-|-------1---1-|
G|---0---0---|-----0---0---|
D|-----------|2h3----------|
A|-3---------|-------------|
E|-----------|-------------|
 1. again
 2. again
 3. again


Verse 4: (Same Lyrics as Verse 1)
-------

   C               F         G
                      _       _
   | | |   | | |   | | | |   | | |
e|-------|-------|---------|-------|
B|-1---1-|-1-0---|-1-----1-|-0-----|
G|-0-----|-0---2-|-2---2---|-0---0-|
D|-------|-------|---3-----|---0---|
A|-3-----|-3-----|---------|-------|
E|-------|-------|-1-------|-3-----|
      You fill up my sen    ses

   Am        F       C       Am
        _
   | | | |   | | |   | | |   | | |
e|---------|-------|-------|-------|
B|---------|---0-1-|-------|-------|
G|-----2-2-|-2-----|-0-----|-------|
D|-----2---|---3---|---2---|-------|
A|-0-------|-------|-3---2-|-0-----|
E|---------|-1-----|-------|-------|
   Like a night in a forest

   G       F         Em      Dm
              _
   | | |   | | | |   | | |   | | |
e|-------|---------|-------|-------|
B|-----0-|-1-----1-|-0-----|---0-1-|
G|-0-2---|-2---2---|-0---0-|-2-----|
D|-0-----|---3-----|---2---|-0-----|
A|-------|---------|-------|-------|
E|-3-----|-1-------|-0-----|-------|
   Like the mountains in springtime

   G
      _           _
   | | | |   |   | | |
e|---------|-----------|
B|-0-----0-|-0h1-----1-|
G|-0---0---|-------0---|
D|---0-----|-----0-----|
A|---------|-----------|
E|-3-------|-3---------|
   Like a walk in the rain

   G               F         G
              _       _
   | | |   | | |   | | | |   | | |
e|-------|-------|---------|-------|
B|-0---1-|-1-0---|-1-----1-|-3-----|
G|-0-----|-0---2-|-2---2---|-0---0-|
D|-------|-------|---3-----|---0---|
A|-------|-------|---------|-------|
E|-3-----|-3-----|-1-------|-3-----|
   Like a storm in the desert

   Am        F       C       Am
        _
   | | | |   | | |   | | |   | | |
e|---------|-------|-------|-------|
B|-----1-1-|-1-0---|-------|-------|
G|---------|-2---2-|-0-----|-------|
D|-----2---|-------|---2---|-------|
A|-0-------|-------|-3---2-|-0-----|
E|---------|-1-----|-------|-------|
   Like a sleepy blue ocean

   G       F         Am      G
              _
   | | |   | | | |   | | |   | | |
e|-------|---------|-------|-------|
B|-----0-|-1-----1-|-0-----|-0-1-3-|
G|-0-2---|-2---2---|-0---0-|-0-0-0-|
D|-0-----|---3-----|---2---|---0-0-|
A|-------|---------|-------|-------|
E|-3-----|-1-------|-0-----|-3-----|
  You fill up my senses   Come fill me

   C
      _   _         _   _
   | | | | |     | | | | |
e|-----------|-------------|
B|-----1---1-|-------1---1-|
G|---0---0---|-----0---0---| (fade out)
D|-----------|2h3----------|
A|-3---------|-------------|
E|-----------|-------------|
   again
Top
Previous Song  Previous | Next  Next Song