+
- 
My Guitar Songbook
Good Evening  |  Sign In 
Mr. Tambourine Man (Fingerstyle)  

Info  |  Tutorial  |  Tab  |  Rate It  |  Share
Mr. Tambourine Man (Fingerstyle) - Helmut Bickel
 Arranged By: Helmut Bickel
 Audio Src: Tutorial
 Rated: ( 1 )  | 

Standard Tuning - 4/4 Time

Intro:
-----

   G             D
        _   _           _
   | | | | | |   | | | | |
e|-----0-------|-----------|
B|---3-0-3-1-0-|-------0---|
G|---0---0-0---|-2---2---2-| (2 times)
D|---0-----0---|-0---0---0-|
A|-------------|-----------|
E|-3---3-------|-----------|


Chorus:
------

   C             D           G             C
      _   _         _           _   _           _
   | | | | | |   | | | | |   | | | | | |   | | | | |
e|-3---3---2---|-0---------|-------------|-----------|
B|-1-----------|---3-3-----|-0-3-3---0---|-----------|
G|-------------|---2---2---|-0-0-0---0---|-0---0-2---|
D|---2-------2-|-0-------0-|---0-------0-|---2-----0-|
A|-3-----3-----|-----------|-------------|-3---3-----|
E|-------------|-----------|-3-----3-----|-----------|
Hey! Mr. Tambourine Man, play a song for me,

   G            C             D Dsus    D
      _   _         _   _
   | | | | | |   | | | | | |   | | | |   | | | |
e|-------------|-0-----------|---3-----|-2-------|
B|-0-3-3---3---|-1-3-1---0---|---3-----|-3-------|
G|-0-0-0---0---|-------------|-2-2-----|-2-------|
D|---0-------0-|---2-------2-|-0-0-----|-0-------|
A|-------------|-3-----3-----|---------|---------|
E|-3-----3-----|-------------|---------|---------|
I'm not sleepy and there is no place I'm going to.

   C             D           G             C
      _   _         _           _   _           _
   | | | | | |   | | | | |   | | | | | |   | | | | |
e|-3---3---2---|-0---------|-------------|-----------|
B|-1-----------|---3-3-----|-0-3-3---0---|-----------|
G|-------------|---2---2---|-0-0-0---0---|-0---0-2---|
D|---2-------2-|-0-------0-|---0-------0-|---2-----0-|
A|-3-----3-----|-----------|-------------|-3---3-----|
E|-------------|-----------|-3-----3-----|-----------|
Hey! Mr. Tambourine Man, play a song for me,

   G            C           D
      _   _           _             _
   | | | | | |   | | | | |   | | | | |
e|-------------|-----------|-----------|
B|-0-3-3---0---|-1-0-------|-------0---|
G|-0-0-0---0---|-0---2-0---|-2---2---2-|
D|---0-------0-|---2-----0-|-0---0---0-|
A|-------------|-3---3-----|-----------|
E|-3-----3-----|-----------|-----------|
In the jingle jangle morning I'll come followin' you.

   G             D
        _   _           _
   | | | | | |   | | | | |
e|-----0-------|-----------|
B|---3-0-3-1-0-|-------0---|
G|---0---0-0---|-2---2---2-| (2 times)
D|---0-----0---|-0---0---0-|
A|-------------|-----------|
E|-3---3-------|-----------|
 

Verse 2:
-------

   C             D           G             C
      _   _         _           _   _           _
   | | | | | |   | | | | |   | | | | | |   | | | | |
e|-3---3---2---|-0---------|-------------|-----------|
B|-1-----------|---3-3-----|-0-3-3---0---|-----------|
G|-------------|---2---2---|-0-0-0---0---|-0---0-2---|
D|---2-------2-|-0-------0-|---0-------0-|---2-----0-|
A|-3-----3-----|-----------|-------------|-3---3-----|
E|-------------|-----------|-3-----3-----|-----------|
Take me on a trip upon your magic swirlin' ship,

   G             C           G             C
      _   _           _         _   _           _
   | | | | | |   | | | | |   | | | | | |   | | | | |
e|-------------|-----------|-------------|-----------|
B|-0-3-3---0---|-----------|-0-3-3---0---|-----------|
G|-0-0-0---0---|-0---0-2---|-0-0-0---0---|-0---0-2---|
D|---0-------0-|---2-----0-|---0-------0-|---2-----0-|
A|-------------|-3---3-----|-------------|-3---3-----|
E|-3-----3-----|-----------|-3-----3-----|-----------|
My senses have been stripped, my hands can't feel to grip,

   G             C           G             C
      _   _           _         _   _         _   _
   | | | | | |   | | | | |   | | | | | |   | | | | | |
e|-------------|-----------|-------------|-0-----------|
B|-0-3-3---0---|-----------|-0-3-3---3---|-1-3-1---0---|
G|-0-0-0---0---|-0---0-2---|-0-0-0---0---|-------------|
D|---0-------0-|---2-----0-|---0-------0-|---2-------2-|
A|-------------|-3---3-----|-------------|-3-----3-----|
E|-3-----3-----|-----------|-3-----3-----|-------------|
My toes too numb to step, wait only for my boot heels

   D Dsus    D

   | | | |   | | | |
e|---3-----|-2-------|
B|---3-----|-3-------|
G|-2-2-----|-2-------|
D|-0-0-----|-0-------|
A|---------|---------|
E|---------|---------|
To be wonderin'.

   C             D           G             C
      _   _         _           _   _           _
   | | | | | |   | | | | |   | | | | | |   | | | | |
e|-3---3---2---|-0---------|-------------|-----------|
B|-1-----------|---3-3-----|-0-3-3---0---|-----------|
G|-------------|---2---2---|-0-0-0---0---|-0---0-2---|
D|---2-------2-|-0-------0-|---0-------0-|---2-----0-|
A|-3-----3-----|-----------|-------------|-3---3-----|
E|-------------|-----------|-3-----3-----|-----------|
I'm ready to go anywhere, I'm ready for to fade

   G             C           G             C
      _   _           _         _   _           _
   | | | | | |   | | | | |   | | | | | |   | | | | |
e|-------------|-----------|-------------|-0-----------|
B|-0-3-3---0---|-----------|-0-3-3---0---|-1-3-1---0---|
G|-0-0-0---0---|-0---0-2---|-0-0-0---0---|-------------|
D|---0-------0-|---2-----0-|---0-------0-|---2-------2-|
A|-------------|-3---3-----|-------------|-3-----3-----|
E|-3-----3-----|-----------|-3-----3-----|-------------|
Into my own parade, cast your dancing spell my way,

   D Dsus    D

   | | | |   | | | |
e|---3-----|-2-------|
B|---3-----|-3-------|
G|-2-2-----|-2-------|
D|-0-0-----|-0-------|
A|---------|---------|
E|---------|---------|
I promise to go under it.


*:·..·:*¨¨*:·..·:*¨¨*


Lyrics and Chords:
-----------------

Chorus:
------

C        D               G               C
Hey! Mr. Tambourine Man, play a song for me,
        G                C               Dsus   D
I'm not sleepy and there is no place I'm going to.
C        D               G               C
Hey! Mr. Tambourine Man, play a song for me,
       G             C                 D         G  G D G D
In the jingle jangle morning I'll come followin' you.


Verse 1:
-------

Though I know that evening's empire has returned into sand
Vanished from my hand
Left me blindly here to stand, but still not sleeping
My weariness amazes me, I'm branded on my feet
I have no one to meet
And the ancient empty street's too dead for dreaming

Chorus:
------

Hey, Mr. Tambourine Man, play a song for me
I'm not sleepy and there is no place I'm going to
Hey, Mr. Tambourine Man, play a song for me
In the jingle jangle morning I'll come following you

Verse 2:
-------

C            D              G              C
Take me on a trip upon your magic swirlin' ship,
   G                C            G                   C
My senses have been stripped, my hands can't feel to grip,
   G                C          G           C
My toes too numb to step, wait only for my boot heels
      D       D
To be wonderin'.
    C           D             G            C
I'm ready to go anywhere, I'm ready for to fade
  G         C                 G                C
Into my own parade, cast your dancing spell my way,
            Dsus       D
I promise to go under it.

Chorus:
------

Hey, Mr. Tambourine Man, play a song for me
I'm not sleepy and there is no place I'm going to
Hey, Mr. Tambourine Man, play a song for me
In the jingle jangle morning I'll come following you

Verse 3:
-------

Though you might hear laughing, spinning, swinging 
madly across the sun
It's not aimed at anyone
It's just escaping on the run
And but for the sky there are no fences facing
And if you hear vague traces of skipping reels of rhyme
To your tambourine in time
It's just a ragged clown behind
I wouldn't pay it any mind
It's just a shadow you're seeing that he's chasing

Chorus:
------

Hey, Mr. Tambourine Man, play a song for me
I'm not sleepy and there is no place I'm going to
Hey, Mr. Tambourine Man, play a song for me
In the jingle jangle morning I'll come following you

Verse 4:
-------

And take me disappearing through the smoke 
rings of my mind
Down the foggy ruins of time
Far past the frozen leaves
The haunted frightened trees
Out to the windy beach
Far from the twisted reach of crazy sorrow
Yes, to dance beneath the diamond sky
With one hand waving free
Silhouetted by the sea
Circled by the circus sands
With all memory and fate
Driven deep beneath the waves
Let me forget about today until tomorrow

Chorus:
------

Hey, Mr. Tambourine Man, play a song for me
I'm not sleepy and there is no place I'm going to
Hey, Mr. Tambourine Man, play a song for me
In the jingle jangle morning I'll come following you
Top
 
Previous Song  Previous | Next  Next Song