+
- 
My Guitar Songbook
Good Morning  |  Sign In 
Massachusetts (Fingerstyle)

About  |  Tutorial  |  Tab  |  Rate It  |  Share
Massachusetts (Fingerstyle) - Helmut Bickel
Original Artist: The Bee Gees 
Song arranged by Helmut Bickel
Audio clip from the Tutorial
About this Song
Rated: ( 2 )  | 

 

Capo 2nd Fret - 4/4 Time

Intro:
-----

   G                            
    _           _   _         _           _   _
   | | | | |   | | | | | |   | | | | |   | | | | | |
e|-----------|-------------|-----------|-------------|
B|-----------|---0-----0---|-----------|---0-----0---|
G|---------0-|-2-----2-----|---------0-|-2-----2-----|
D|-0---0-2-0-|-----0-----0-|-0---0-2-0-|-----0-----0-|
A|-----------|-------------|-----------|-------------|
E|-3---3-----|-3-------3---|-3---3-----|-3-------3---|


Verses:
------

   G               Am    C       G         '
      _   _   _       _     _               _   _
   | | | | | | |   | | | | | |   | | | |   | | | | | |
e|---------------|-------------|---------|-------------|
B|---------------|-------------|---------|---0-----0---|
G|---------0---2-|-------0---0-|-------0-|-2-----2-----|
D|-0---0-2---0---|-----2-------|-2-0-2---|-----0-----0-|
A|---------------|-0-----3-----|---------|-------------|
E|-3---3---------|-------------|-3-------|-3-------3---|
 Feel I'm goin' back to Massachusetts

   G               Am    C       G             '
      _   _   _       _     _         _   _
   | | | | | | |   | | | | | |   | | | | | |   | | | |
e|---------------|-------------|-------------|---------|
B|---------------|-------------|-------------|-0---0-1-|
G|---------0---2-|-------0---0-|-------0---2-|-----0-0-|
D|-0---0-2---0---|-----2-------|-2-0-2---0---|---0---0-|
A|---------------|-0-----3-----|-------------|---------|
E|-3---3---------|-------------|-3---3-------|-3---3---|
 Something's telling me I must go home          And the

   G         '             C             '        
                _     _         _   _       _     _
   | | | |   | | | | | |   | | | | | |   | | | | | |
e|---------|-3---3-3---2-|-2-0---------|-------------|
B|-3---0-3-|-0-----------|-----1-0-----|-------------|
G|-0---0-0-|-------------|---------2-0-|-----0-------|
D|---0---0-|---0-----0---|---2---------|-2-----4---2-|
A|---------|-------------|-3---3-------|-3-----------|
E|-3---3---|-3-----3-----|-------------|-------------|
 lights all went out in Massachusetts     The day I 

   G           D7          G     Am    D7
      _               _       _         _   _   _   _
   | | | | |   | | | | |   | | | | |   | | | | | | | |
e|-----------|-----------|-----------|-----------------|
B|---------0-|-1-1-0-----|-----------|---0-x---0-3-0---|
G|-------0-0-|---------2-|-0-------0-|-2-----2-------2-|
D|-0---0---0-|---0---0---|-----0-2---|-----0-------0---|
A|-----------|-----------|-------x---|-----------------|
E|-3-----3---|-2---2-----|-3---------|-2-------2-------|
 left her standing on her own


 :·..·: ¨¨ :·..·: ¨¨ :·..·: 


Lyrics and Chords:
-----------------

Intro:
------

G   G    G    G


Verse 1:
-------

G           [  Am      C ]  G       '
Feel I'm going back to Massachusetts
G                 [ Am   C  ]    G
Something's telling me I must go home
        G               '           C       '
And the lights all went out in Massachusetts
          G        D7            [ G   Am ]  D7
The day I left her standing on her own
 
 
Verse 2:
-------

G           [  Am      C ]  G       '
Try to hitch a ride to San Francisco
G           [  Am      C ]  G
Gotta do the things I wanna do
        G               '           C
And the lights all went out in Massachusetts
                G       D7              G     D7
They brought me back to see my way with you
 
 
Verse 3:
-------

G           [  Am      C ]  G       '
Talk about the life in Massachusetts
G            [  Am      C ]   G
Speak about the people I have seen
        G               '           C
And the lights all went out in Massachusetts
         G           D7                    G
And Massachusetts is one place I have ... seen

 
Outro:
-----

 G      [ Am     C ]  G      [ Am     C ]  G
(I will remember Massachusetts)
                      I will remember Massachusetts
 G      [ Am     C ]  G      [ Am     C ]  G
(I will remember Massachusetts)
                      I will remember Massachusetts
Top
Previous Song  Previous | Next  Next Song