+
- 
My Guitar Songbook
Good Evening  |  Sign In 
Delta Blues (Fingerstyle)  

Info  |  Tutorial  |  Tab  |  Rate It  |  Share
Delta Blues (Fingerstyle) - Helmut Bickel
 Arranged By: Helmut Bickel
 Audio Src: Tutorial
 Rated: ( 2 )  | 

Capo 2nd Fret - 4/4 Time

      Em
    _   _   _   _     _   _   _   _
   | | | | | | | |   | | | | | | | |
e|---------------0-|-----------------|
B|-------------3b--|-----------------|
G|-----------------|-------------2-0-|
D|-2-2---2-2-2-----|-2-2---2-2-2-----|
A|-2-2-----2-2-----|-2-2-----2-2-----|
E|-0-0-3---0-0-0---|-0-0-3---0-0-0---|

   Em
    _   _   _   _     _   _   _   _
   | | | | | | | |   | | | | | | | |
e|---------------0-|-----------------|
B|-------------3b--|-----------------|
G|-----------------|-------------2-0-|
D|-2-2---2-2-2-----|-2-2---2-2-2-----|
A|-2-2-----2-2-----|-2-2-----2-2-----|
E|-0-0-3---0-0-0---|-0-0-3---0-0-0---|

   A7
    _   _   _   _ _     _   _ _   _   _ _
   | | | | | | | | |   | | | | | | | | | |
e|-----3-0-3-0-3-0---|-----3-5-3-----------|
B|-----------------2-|---------------------|
G|-------------------|---------------2p0---|
D|-2-2---------------|-2-2-------2-2-----2-|
A|-0-0-0-0-0-0-0-----|-0-0-0-----0-0-0-----|
E|-------------------|---------------------|

   Em
    _   _   _   _     _   _   _   _ _
   | | | | | | | |   | | | | | | | | |
e|---------------0-|-------------------|
B|-------------3b--|-------------------|
G|-----------------|-------------------|
D|-2-2---2-2-2-----|-2-2---2-2-2-------|
A|-2-2-----2-2-----|-2-2-----2-2---0-1-|
E|-0-0-3---0-0-0---|-0-0-3---0-0-3-----|

   B7                  A7
    _   _   _   _ _     _   _ _   _ _   _ _
   | | | | | | | | |   | | | | | | | | | | |
e|---------------0---|-----------------------|
B|-----3---3-3-----3-|-------3---------------|
G|-----2---2-2-----2-|-2-2s4---4-2-0---------|
D|-----1---1-1-----1-|-2-2-----------2-0-----|
A|-2-2---2-----2-----|-0-0---------------2---|
E|-------------------|---------------------3-|

   Em                                  B7
    _   _ _   _ _   _ _     _   _ _     _   _   _   _ _
   | | | | | | | | | | |   | | | | |   | | | | | | | | |
e|-----------------------|-----------|---------------0---|
B|-----------------------|-----------|-----3---3-3-----3-|
G|-----------------------|-----------|-----2---2-2-------|
D|-------------0---------|-2-2-------|-----1---1-1-------|
A|-------0-1-2---2-1p0---|-------0-1-|-2-2---2-----2-----|
E|-0-0-3---------------3-|-----3-----|-------------------|
Top
 
Previous Song  Previous | Next  Next Song