+
- 
My Guitar Songbook
Good Morning  |  Sign In 
When the Saints Go Marching In...  

Info  |  Tutorial  |  Tab  |  Rate It  |  Share
When the Saints Go Marching In (Fingerstyle) - Helmut Bickel
 Arranged By: Helmut Bickel
 Audio Src: Tutorial
 Rated: ( 1 )  | 

Capo 2nd Fret - 4/4 Time

Melody:
------

           G
                _                     _
   | | |   | | | | |   | | | |   | | | | |   | | | |
e|-------|-----------|---------|-----------|---------|
B|---0-1-|-3-----3---|-3---0-1-|-3-----3---|-3---0-1-|
G|-0-----|-----------|---0-----|-----------|---0-----|
D|-------|---0-----0-|---0---0-|---0-----0-|---0---0-|
A|-------|-----------|---------|-----------|---------|
E|-------|-3---3-----|-3---3---|-3---3-----|-3---3---|

   G                   D
                            _
   | | | |   | | | |   | | | | |   | | | |
e|---------|---------|-----------|---------|
B|-3---0---|-----0---|-----------|---0-0---|
G|---------|-0-------|-2-----2---|-2-----2-|
D|---0---0-|---0---0-|---0-----0-|-0-0---0-|
A|---------|---------|-----------|---------|
E|-3---3---|-3---3---|-2---2-----|-2---2---|

   G                     C
        _                     _
   | | | | |   | | | |   | | | | |   | | | |
e|-----------|---------|-----------|---------|
B|-----------|-0---3-3-|-3-1---1---|-1-1-0-1-|
G|-0-----0---|---------|-----------|---------|
D|---0-----0-|---0---0-|---2-----2-|---2---2-|
A|-----------|---------|-3---3-----|-3---3---|
E|-3---3-----|-3---3---|-----------|---------|

   G         D         G
                            _
   | | | |   | | | |   | | | | |   |
e|---------|---------|-----------|---------|
B|-3---0---|---------|-------0---|---------|
G|---------|-0---2---|---0-------|-0-------|
D|---0---0-|---0---0-|---0-----0-|-0-------|
A|---------|---------|-----------|---------|
E|-3---3---|-2---2---|-3---3-----|-3-------|


*:·..·:*¨¨*:·..·:*¨¨*:·..·:*


Lyrics and Chords:
-----------------

             G        '         '
Oh, when the saints go marchin' in,
G            '          '       D
Oh, when the saints go marchin' in,
D        G        '         C       '
Lord, I want to be in that number
         G        D         G       '
When the saints go marchin' in.

And when the sun, begins to shine,
And when the sun, begins to shine,
Oh, how I want to be in that number
When the sun begins to shine.

Oh, when the trumpet, sounds its call
Oh, when the trumpet, sounds its call,
Lord, how I want to be in that number
When the trumpet sounds its call.

Oh, when the saints go marchin' in,
Oh, when the saints go marchin' in,
Lord, how I want to be in that number
When the saints go marchin' in.
Top
 
Previous Song  Previous | Next  Next Song