+
- 
My Guitar Songbook
Good Evening  |  Sign In 
Sailing (Fingerstyle)  

Info  |  Tutorial  |  Tab  |  Rate It  |  Share
Sailing (Fingerstyle) - LonelyPicker
 Arranged By: LonelyPicker
 Audio Src: Tutorial
 Rated: ( 1 )  | 

Capo 4th Fret - 4/4 Time

            G                  Em
    _   _     _   _   _   _     _   _   _   _
   | | | |   | | | | | | | |   | | | | | | | |
e|---------|-----------------|-0-----0-----0---|
B|---------|-------0-----0-3-|-0---0---------3-|
G|---------|-0---0-------0---|---0-------0-----|
D|-----0-2-|---0-------0-----|-----------------|
A|---------|-----------------|-----------------|
E|---------|-3-------3-------|-0-------0-------|

   C                 G                   
    _   _   _   _     _   _   _   _ _
   | | | | | | | |   | | | | | | | | |
e|-----------------|-------------------|
B|-3p1---1-----1-0-|-0-----------0h1p0-|
G|-0---------0-----|---0---0-----------|
D|-----2-----------|-----0-----0-------|
A|-3-------3-------|-------------------|
E|-----------------|-3-------3---------|

   Am                Em                Am
    _   _   _   _     _   _   _   _     _   _   _   _
   | | | | | | | |   | | | | | | | |   | | | | | | | |
e|-----------------|-----------------|-----------------|
B|-0-----------0---|-----------------|-0---------------|
G|---2---2-------2-|-0-----0---------|-2-2---2-----2-0-|
D|-----2-----2-----|-----2-------0h2-|-----2-----2-----|
A|-0-------0-------|---2-------2-----|-0-------0-------|
E|-----------------|-0-------0-------|-----------------|

__

   G       D       G                 Em
    _   _     _     _   _   _   _     _   _   _   _ 
   | | | | | | |   | | | | | | | |   | | | | | | | |
e|---------------|-----------------|-0-----0-----0---|
B|---------3-----|-------0-----0-3-|-0---0---------3-|
G|-0---0---2-----|-0---0-------0---|---0-------0-----|
D|---0---0-0-0-2-|---0-------0-----|-----------------|
A|---------------|-----------------|-----------------|
E|-3-------------|-3-------3-------|-0-------0-------|

   C                 G
    _   _   _   _     _   _   _   _
   | | | | | | | |   | | | | | | | |
e|-----------------|-----------------|
B|-3-1---1-----1-0-|-0-----------1-0-|
G|-0---------0-----|---0---0-----0---|
D|-----2-----------|-----0-----0-----|
A|-3-------3-------|-----------------|
E|-----------------|-3-------3-------|

   Am                Em                Am
    _   _   _   _     _   _   _   _     _   _   _   _
   | | | | | | | |   | | | | | | | |   | | | | | | | |
e|-----------0-0---|-----------------|-----------------|
B|-0---------0---0-|-------0---------|-0---------------|
G|---2---2---2-----|-0---0---------0-|---2---2-----2-0-|
D|-----2-----------|---2---------2---|-----2-----2-----|
A|-0-------0-------|-----------2-----|-0-------0-------|
E|-----------------|-0-------0-------|-----------------|

__

   G                                 Em
    _   _   _       _   _   _   _     _   _   _   _
   | | | | | | |   | | | | | | | |   | | | | | | | |
e|---------------|-0---------------|-0-----0-----0---|
B|-------0-----3-|-0-3---3-----0-3-|-0---0---------3-|
G|-0---0-------0-|-------0---0-----|---0-------0-----|
D|---0-------0---|-----0-----------|-----------------|
A|---------------|-----------------|-----------------|
E|-3-------3-----|-3-------3-------|-0-------0-------|

   C                 G
    _   _   _   _     _   _   _   _
   | | | | | | | |   | | | | | | | |
e|-----------------|-----------------|
B|-3p1---1-----1-0-|-0-----0-----3-0-|
G|-0---------0-----|-0---0-----------|
D|-----2-----------|---0-------0-----|
A|-3-------3-------|-----------------|
E|-----------------|-3-------3-------|

   Am                Em                Am
    _   _   _   _     _   _   _   _     _   _   _   _
   | | | | | | | |   | | | | | | | |   | | | | | | | |
e|-0-----------0---|-----------------|-----------------|
B|---0-------0---0-|-----------------|-0---------------|
G|-------2---2-----|-0-----0---------|-2-2---2-----2-0-|
D|-----2-----------|-----2-------0-2-|-----2-----2-----|
A|-0-------0-------|---2-------2-----|-0-------0-------|
E|-----------------|-0-------0-------|-----------------|

   G
    _   _   _   _
   | | | | | | | |   | | | |
e|-----------------|-3-------|
B|-------0---------|-0-------|
G|-0---0-------0---|-0-------|
D|---0-------0---0-|---------|
A|-----------------|---------|
E|-3-------3-------|-3-------|


*:·..·:*¨¨*:·..·:*¨¨*:·..·:*


Lyrics and Chords:
-----------------

     G               Em
I am sailing, I am sailing
      C               G
Home again 'cross the sea
      Am             Em
I am sailing, stormy waters
      Am            [ G    D]
To be near you, to be free

I am flying, I am flying
Like a bird 'cross the sky
I am flying, passing high clouds
To be near you, to be free

Can you hear me, can you hear me
Through the dark night, far away?
I am dying, forever crying
To be with you, who can say

Can you hear me, can you hear me
Through the dark night far away?
I am dying, forever crying
To be with you, who can say

We are sailing, we are sailing
Home again 'cross the sea
We are sailing stormy waters
                    [ G
To be near you, to be free

D     ]        Am            [ G
Oh Lord, to be near you, to be free
D     ]        Am            [ G
Oh my Lord, to be near you, to be free
D     ]        Am            [ G
Oh my Lord, to be near you, to be free

Oh Lord...

   G       D      Am
    _   _     _     _   _   _   _
   | | | | | | |   | | | | | | | |
e|---------------|-----------------|
B|---------3-----|-0---------------|
G|-0---0---2-----|-2-2---2-----2-0-|
D|---0---0-0-0-2-|-----2-----2-----|
A|---------------|-0-------0-------|
E|-3-------------|-----------------|
Top
 
Previous Song  Previous | Next  Next Song