+
- 
My Guitar Songbook
Good Evening  |  Sign In 
500 Miles Away from Home...  

Info  |  Tutorial  |  Tab  |  Rate It  |  Share
500 Miles Away from Home (Fingerstyle) - Helmut Bickel
 Arranged By: Helmut Bickel
 Audio Src: Tutorial
 Rated: ( 3 )  | 

Capo 4th Fret - 4/4 Time

NOTE: Lyrics and Chords below


Verse:
-----

           C                 Am
      _     _ _ _   _ _ _     _ _ _   _ _ _     
   | | |   | | | | | | | |   | | | | | | | |   
e|-------|-0-----0---------|-0-----0---------|
B|---1---|---------3---1---|---------3---1---|
G|-0---0-|-----0---------0-|-----2---------2-|
D|-------|---2-------2-----|---2-------2-----|
A|-------|-3-------3-------|-0-------0-------|
E|-------|-----------------|-----------------|

   Dm                F                 G                 
    _ _ _   _ _ _     _ _ _   _ _ _     _ _ _   _ _ _
   | | | | | | | |   | | | | | | | |   | | | | | | | |
e|-------0---------|-----------------|-------0---------|
B|-3---3---3---1---|-------------1---|-3-------3---1---|
G|---2-------2---0-|-2---2---2-----2-|-----0---------0-|
D|-0-------0-------|---3---3---3-----|---0-------0-----|
A|-----------------|-----------------|-----------------|
E|-----------------|-3-------3-------|-3-------3-------|

   C6/9              C
    _ _ _   _ _ _     _ _ _
   | | | | | | | |   | | | | |
e|-----------------|-----------|
B|-------------1---|-1-----1-1-|
G|-2---0---2-----0-|-----0---0-|
D|---0---0---0-----|---2-----2-|
A|-----------------|-3-------3-|
E|-3-------3-------|-----------|


Chorus:
------

         C         Am        Dm        F

   | |   | | | |   | | | |   | | | |   | | | |
e|-----|-0-0-----|-0-0-----|---0-----|---------|
B|---1-|-1---3-1-|-1---3-1-|-3---3-1-|-------1-|
G|-0---|-0-------|-2-------|-2-------|-2---2---|
D|-----|-2-------|-2-------|-0-------|-3-------|
A|-----|-3-------|-0-------|---------|---------|
E|-----|---------|---------|---------|-1-------|

   G                   C
                    
   | | | |   | | | |   | | | |   | | | |
e|---0-----|---------|---------|---------|
B|-3---3-1-|-------1-|-1-------|---------|
G|-0-------|-2-0-2---|-0-------|---------|
D|---------|-0---0---|-2-------|---------|
A|---------|---------|-3-------|---------|
E|-3-------|-3---3---|---------|---------|


*:·..·:*¨¨*:·..·:*¨¨*:·..·:*


Lyrics and Chords:
-----------------

Verse:
-----

       C                  Am
If you miss the train I'm on, 
          Dm             F
you will know that I am gone, 
        G                '              C
you can hear the whistle blow a hundred miles
        C                  Am
A hundred miles, a hundred miles, 
        Dm        F
a hundred miles, a hundred miles, 
        G                '              C
you can hear the whistle blow a hundred miles


Chorus:
------

          C              Am             
Lord, I'm one, Lord, I'm two, 
          Dm             F
Lord, I'm three, Lord, I'm four,
          G              '              C
Lord, I'm five hundred miles a way from home


Not a shirt on my back, 
not a penny to my name. 
Lord, I can't go back home this-a way

This-a way, this-a way, 
this-a way, this-a way, 
Lord, I can't go back home this-a way

If you miss the train I'm on, 
you will know that I am gone, 
you can hear the whistle blow a hundred miles

A hundred miles, a hundred miles, 
a hundred miles, a hundred miles, 
you can hear the whistle blow a hundred miles

You can hear the whistle blow a hundred miles
Top
 
Previous Song  Previous | Next  Next Song