My Guitar Songbook
Good Evening   |  Sign In 
Love Me Tender (Fingerstyle) 

  Song Info  |  Tutorial  |  Tab  |  Rate  | 
Love Me Tender (Fingerstyle) - Nicola Mandorino
Love Me Tender (Fingerstyle) - Nicola Mandorino ( 1 )
 Standard Tuning - 4/4 Time
 Arranged By Nicola Mandorino
 Audio File From Tutorial
Melody:
-----

   C           D             G           C
        _       _   _             _
   | | | | |   | | | | | |   | | | | |   | | | |
e|-----------|-------------|-----------|---------|
B|---1-0-1---|-3-----3-----|-1-0---0---|-1-------|
G|-0---------|---2---------|-----2-----|---------|
D|---2-----2-|-----0-----0-|---0-----0-|---2---2-|
A|-3---------|-------------|-----------|-3-------|
E|-----3-----|-2-------2---|-3---3-----|-----3---|
Love me tender, love me sweet. Never let me go

   C           D             G           C
        _       _   _             _
   | | | | |   | | | | | |   | | | | |   | | | |
e|-----------|-------------|-----------|---------|
B|---1-0-1---|-3-----3-----|-1-0---0---|-1-------|
G|-0---------|---2---------|-----2-----|---------|
D|---2-----2-|-----0-----0-|---0-----0-|---2---2-|
A|-3---------|-------------|-----------|-3-------|
E|-----3-----|-2-------2---|-3---3-----|-----3---|
You have made my life complete. And I love you so

   C         E         F   Fm      C
                            _
   | | | |   | | | |   | | | | |   | | | |
e|-0-0-0---|-0-0-0---|-0---------|-0-------|
B|---------|---------|---3-1-3---|---------|
G|---------|---------|---2-----1-|---------|
D|---2---2-|---2---2-|-3---3-----|---2---2-|
A|-3-------|---------|-----------|-3-------|
E|-----3---|-0---0---|-----------|-----3---|
Love me tender, love me true All my dreams fulfill

   C   A7      D             G           C
        _       _   _             _
   | | | | |   | | | | | |   | | | | |   | | | |
e|-0-0-1-0---|-------------|-----0-----|---------|
B|-----------|-3-----3-----|-1-0---3---|-1-------|
G|-----------|---2---------|-----------|-0-------|
D|---2-----2-|-----0-----0-|---0-----0-|---------|
A|-3---0-----|-------------|-----------|-3-------|
E|-----------|-2-------2---|-3---3-----|---------|
For my darlin', I love you And I always will


*:·..·:*¨¨*:·..·:*¨¨*:·..·:*


Lyrics & Chords:
---------------

C                D
Love me tender, love me sweet
G            C
Never let me go
C                D
You have made my life complete
G              C
And I love you so
C               E
Love me tender, love me true
[F     Fm]    C
All my dreams fulfill
[C      A7 ]    D
For my darlin', I love you
  G          C
And I always will


Love me tender, love me long
Take me to your heart
For it's there that I belong
And we'll never part

Love me tender, love me true
All my dreams fulfill
For my darlin', I love you
And I always will

Love me tender, love me dear
Tell me you are mine
I'll be yours through all the years
Till the end of time

Love me tender, love me true
All my dreams fulfill
For my darlin', I love you
And I always will
        
  Song Info  |  Tutorial  |  Tab  |  Rate  | 
 
  Previous Song  Previous | Next  Next Song   
Love Me Tender (Fingerstyle) - Nicola Mandorino

Please visit Nicola Mandorino’s Tutorial for the original tab, full lesson, audio file and complete breakdown of this arrangement. All rights belong to the copyright holder.

Note: The tab portion of the PDF was transcribed from Nicola Mandorino’s Tutorial.

 Tab (PDF)

Love Me Tender (Fingerstyle) - Nicola Mandorino
Love Me Tender (Fingerstyle) - Nicola Mandorino

This version of the song is arranged by: Nicola Mandorino.

At his website you will find lots of guitar lessons and full songs with tabs, sheet music, backing tracks, chords and tutorials, for beginners or advanced guitarists.

---------------------

"Love Me Tender" is a 1956 song recorded by Elvis Presley and published by Elvis Presley Music from the 20th Century Fox film of the same name. The words are credited to Ken Darby under the pseudonym "Vera Matson", the name of his wife, and Elvis Presley. The RCA Victor recording by Elvis Presley was no. 1 on both the Billboard and Cashbox charts in 1956.

Audio: Love Me Tender - Elvis Presley (Capo 2nd Fret)

Watch: Elvis Presley & Norah Jones - YouTube Video

Read More Read More





Adder: Bill Charrette [ willc ]
Date: 11/29/2020
Audio: Nicola Mandorino’s Tutorial
Rated: (1 Rating )
Views: 351
Tab: 175 Downloads
Genre: Pop