+
- 
My Guitar Songbook
Good Evening  |  Sign In 
Daydream Believer (Fingerstyle) 

Daydream Believer (Fingerstyle) - Assaf Levavy
 Arranged By: Assaf Levavy
 Audio Src: Tutorial
 Rated: ( 2 )  | 

Standard Tuning - 4/4 Time

Intro:
-----

   G                 C/D
    _   _   _   _     _   _   _   _ 
   | | | | | | | |   | | | | | | | |
e|-----------------|-----------------|
B|-0---0---0---0---|-1---1---1---1---|
G|---0---0---0---0-|---0---0---0---0-|
D|-----------------|-0---------------|
A|-----------------|-----------------|
E|-3---------------|-----------------|

   G                 C/D
    _   _   _   _     _   _   _   _
   | | | | | | | |   | | | | | | | |
e|-----------------|-----------------|
B|-0---0---0---0---|-1---1-----------|
G|---0---0---0---0-|---0---0---------|
D|-----------------|-0---------------|
A|-----------------|-----------------|
E|-3---------------|-----------------|


Verse:
-----

   G         Am        Bm        C
    _   _     _   _     _   _     _   _
   | | | |   | | | |   | | | |   | | | |
e|---------|---------|---------|---------|
B|-0-0-----|-0-------|-------3-|-------0-|
G|-----0---|---0-2---|-0-2-4---|-4-0-----|
D|---------|---------|---------|-----2---|
A|---------|-----0---|-----2---|-----3---|
E|-----3---|---------|---------|---------|
..could hide

   G         Em        Am        D
    _   _     _   _     _   _     _   _
   | | | |   | | | |   | | | |   | | | |
e|-------0-|---------|---------|-2-0-----|
B|-3-3-3---|-------0-|---------|-3---3---|
G|---------|-0-0-2---|-2-------|-2-------|
D|---------|---------|---------|---------|
A|---------|---------|-0-------|---------|
E|-3-------|-0-------|---------|---------|

   G         Am        Bm        C
    _   _     _   _     _   _     _   _
   | | | |   | | | |   | | | |   | | | |
e|---------|---------|---------|---------|
B|-0-0-----|-0-------|-------3-|-------0-|
G|-----0---|---0-2---|-0-2-4---|-4-0-----|
D|---------|---------|---------|-----2---|
A|---------|-----0---|-----2---|-----3---|
E|-----3---|---------|---------|---------|

   G         Em        Am        D
    _   _     _   _     _   _     _   _
   | | | |   | | | |   | | | |   | | | |
e|---------|---------|---------|---------|
B|-----0-0-|-1---0---|---------|---------|
G|-0-------|---------|-2---0---|-----2---|
D|---------|---------|---------|-4-------|
A|---------|---------|-0-------|-5-------|
E|-----3---|-0-------|---------|---------|


  G Am G Am G D G
    _   _   _   _ 
   | | | | | | | |
e|-----------------|
B|-----0-1-0-------|
G|-0-2-------2-0---|
D|-----------0-----|
A|---0---0---------|
E|-3---3---3---3---|


Chorus:
------

   C   D7    Bm        C   D     Em  C
    _   _     _   _     _   _     _   _
   | | | |   | | | |   | | | |   | | | |
e|-0-0-2-0-|-0-------|---------|---------|
B|-----1---|-----3---|-1-1-3-3-|-0-------|
G|-----2---|---------|---------|-----0h2-|
D|-----0---|---------|-----0---|-----0---|
A|-3-------|---2-----|-3-------|---------|
E|---------|---------|---------|-0-------|


   G         C         G   Em    Am
    _   _     _   _     _   _
   | | | |   | | | |   | | | |   | | | |
e|-------0-|---------|---------|---------|
B|-----3---|-3-1-0-1-|---3-1-0-|---------|
G|---0-----|---------|---------|-2-------|
D|---------|---------|---------|---------|
A|---------|-3-------|---------|-0-------|
E|-3-------|-----3---|-0-------|---------|

   D

   | | | |
e|-2-------|
B|-3-------|
G|-2-------|
D|-0-------|
A|---------|
E|---------|

*:·..·:*¨¨*:·..·:*¨¨*:·..·:*

Lyrics and Chords:
-----------------

Seven-a
What number is this to?
Seven-a
Okay, don't get excited man, 
it's 'cause I'm short, I know.

 
Verse 1:
-------
 
             G               Am
Oh, I could hide 'neath the wings
        Bm              C
Of the bluebird as it sings
     G           Em                Am     D7
The six-o-clock alarm would never ring
        G           Am
But it rings and I rise
          Bm               C
Wash the sleep out of my eyes
     G      Em      Am   D7        G
My shaving razor's cold and it stings
 
 
Chorus:
------
 
[C        D   ]  Bm
Cheer up sleepy Jean
[C        D   ][ Em  C  ]
Oh what can it mean to a
 G          C          [ G      Em  ]    Am    D
Daydream believer and a    homecoming queen
 
 
Verse 2:
-------
 
     G               Am
You once thought of me
        Bm              C
As a white knight on a steed
     G           Em
Now you know how happy
  Am     D7
Life can be
             G               Am
And our good times start and end
        Bm              C
Without dollar one to spend
    G      Em      Am   D7        G
But how much baby do we really need


Chorus:  (4 times)
------

[C        D   ]  Bm
Cheer up sleepy Jean
[C        D   ][ Em  C  ]
Oh what can it mean to a
 G          C          [ G      Em  ]    Am    D
Daydream believer and a    homecoming queen


Cheer up, sleepy Jean
Oh, what can it mean that
To a daydream believer
And a homecoming queen

Cheer up, sleepy Jean
Oh, what can it mean that
To a daydream believer
And a homecoming queen

Cheer up, sleepy Jean
Oh, what can it mean that
To a daydream believer
And a homecoming queen
Top
 
Previous Song  Previous | Next  Next Song