+
- 
My Guitar Songbook
Good Morning  |  Sign In 
All I Have To Do Is Dream...

About  |  Tutorial  |  Tab  |  Rate It  |  Share
All I Have To Do Is Dream (Fingerstyle) - Ken Phong
Original Artist: Everly Brothers 
Song arranged by Ken Phong
Audio clip from the Tutorial
About this Song
Rated: ( 1 )  | 

 

Capo 4th Fret - 4/4 Time

Intro:
------

   C      Am         F       G         C      Am
    _ _ _   _ _ _     _ _ _   _ _ _     _ _ _   _ _ _     
   | | | | | | | |   | | | | | | | |   | | | | | | | |   
e|-0---------------|-5---5---3---1---|-0---------------|
B|---3-1-------1---|-----------------|---3-1-------1---|
G|-------0-2-------|---5---5---0---0-|-------0-2-------|
D|-----------2---2-|-3---------------|-----------2---2-|
A|-3-------0-------|-----------------|-3-------0-------|
E|-----------------|---------3-------|-----------------|
Drea-ea-ea-ea-eam, dream dream dream Drea-ea-ea-ea-eam,

   F       G
    _ _ _   _ _ _
   | | | | | | | |
e|-5---5---3-----1-|
B|-------------0---|
G|---5---5---0-----|
D|-3---------------|
A|-----------------|
E|---------3-------|
 Deam dream dream


Verse 1:
-------

   C      Am         F       G         C      Am
    _ _ _   _ _ _     _ _ _   _ _ _     _ _ _   _ _ _
   | | | | | | | |   | | | | | | | |   | | | | | | | |
e|-0---0---0-------|-----1-1-3-----1-|-0---0---0-------|
B|-----------------|-------------0---|-----------------|
G|---0---0-----2---|---2-------0-----|---0---0-----2---|
D|-----------2---2-|-3---------------|-----------2---2-|
A|-3-------0-------|-----------------|-3-------0-------|
E|-----------------|---------3-------|-----------------|
1. When I want you,     in my arms    When I want you,

   F       G         C      Am         F       G
    _ _ _   _ _ _     _ _ _   _ _ _     _ _ _   _ _ _
   | | | | | | | |   | | | | | | | |   | | | | | | | |
e|---1-1-1-3-----1-|-0---0---5---0---|-----------------|
B|-------------0---|---3-----------3s|-1-1-1-1-3-----3-|
G|-----------0-----|-----------------|-------------0---|
D|-3---------------|-----------2-----|-3---------0-----|
A|-----------------|-3-------0-------|-----------------|
E|---------3-------|-----------------|---------3-------|
1. and all your charms. Whenever I want you, all I... do

   C      Am         F       G
    _ _ _   _ _ _     _ _ _   _ _ _
   | | | | | | | |   | | | | | | | |
e|-0---------------|-5---5---3-----1-|
B|---3-1-------1---|-------------0---|
G|-------0-2-------|---5---5---0-----|
D|-----------2---2-|-3---------------|
A|-3-------0-------|-----------------|
E|-----------------|---------3-------|
1. is Drea-ea-ea-ea-eam, dream dream dream


Verse 2:
-------

   C      Am         F       G         C      Am
    _ _ _   _ _ _     _ _ _   _ _ _     _ _ _   _ _ _
   | | | | | | | |   | | | | | | | |   | | | | | | | |
e|-0---0---0-------|-----1-1-3-----1-|-0---0---0-------|
B|-----------------|-------------0---|-----------------|
G|---0---0-----2---|---2-------0-----|---0---0-----2---|
D|-----------2---2-|-3---------------|-----------2---2-|
A|-3-------0-------|-----------------|-3-------0-------|
E|-----------------|---------3-------|-----------------|
2. When I want you,     in my arms    When I want you,

   F       G         C      Am         F       G
    _ _ _   _ _ _     _ _ _   _ _ _     _ _ _   _ _ _
   | | | | | | | |   | | | | | | | |   | | | | | | | |
e|---1-1-1-3-----1-|-0---0---5---0---|-----------------|
B|-------------0---|---3-----------3s|-1-1-1-1-3-----3-|
G|-----------0-----|-----------------|-------------0---|
D|-3---------------|-----------2-----|-3---------0-----|
A|-----------------|-3-------0-------|-----------------|
E|---------3-------|-----------------|---------3-------|
2. and all your charms. Whenever I want you, all I... do

   C        F          C       C7
    _ _ _   _ ___ _     _ _ _   _ _ _
   | | | | | |   | |   | | | | | | | |
e|-0-----------------|-----------------|
B|---3-1-----1-----1-|-1-----1-----1---|
G|-------------0h2---|-----0---3-----3-|
D|-------2-3---------|---2-------2-----|
A|-3-----------------|-3-------3-------|
E|-------------------|-----------------|
2.   Drea-ea-ea-ea-eam       (to Chorus 1)


Chorus 1 & 2:
------------

   F                 Em                 Dm      G
    _ _ _   _ _ _     _ _ _   _ _ _     _ _ _   _ _ _
   | | | | | | | |   | | | | | | | |   | | | | | | | |
e|-5-5-5-5-5-------|-3-3-3-3-3-------|-1-0-1-------3-1-|
B|-------------6---|-----0-------0---|-3---------------|
G|-----5-----5---5-|-----0-----0---0-|-2-----2---------|
D|-3-----3---------|-----------------|-0---------0-----|
A|-----------------|-----------------|-----------------|
E|-----------------|-0---------------|---------3-------|
1. I can make..mine taste your lips of wine   Anytime,
2. I can make..mine taste your lips of wine   Anytime,

   C       C7        F                 Em
    _ _ _   _ _ _     _ _ _   _ _ _     _ _ _   _ _ _
   | | | | | | | |   | | | | | | | |   | | | | | | | |
e|-0---------------|-5-5-5-5-5-------|-----7s5-3-----3-|
B|-------1-----1---|-------------6---|-----0-------0---|
G|-----0---3-----3-|-----5-----5-----|---0-0-----0-----|
D|---2-------2-----|-3-----3-------3-|-----------------|
A|-3-------3-------|-----------------|-----------------|
E|-----------------|-----------------|-0-------0-------|
1. night or day     Only trouble is,      gee whiz
2. night or day     Only trouble is,      gee whiz

    D7              [  G  F  Em  Dm  ]
    _ _ _   _ _ _     _ _ _   _ _ _
   | | | | | | | |   | | | | | | | |
e|-5-5---5-5s3---2-|-3-----------1---|
B|-----------------|---------0---0---|
G|-5-------5---2---|-----0-------0---|
D|-0-------0-------|---0---0---0---0-|
A|-----0-----------|-----------------|
E|-----------------|-3---------------|
1. I'm dreamin' my life away  (to Verse 3)
2. I'm dreamin' my life away  (to Verse 4)


Verse 3:
-------

   C      Am         F       G         C      Am
    _ _ _   _ _ _     _ _ _   _ _ _     _ _ _   _ _ _
   | | | | | | | |   | | | | | | | |   | | | | | | | |
e|-0---0---0-------|-----1-1-3-----1-|-0---0---0-------|
B|-----------------|-------------0---|-----------------|
G|---0---0-----2---|---2-------0-----|---0---0-----2---|
D|-----------2---2-|-3---------------|-----------2---2-|
A|-3-------0-------|-----------------|-3-------0-------|
E|-----------------|---------3-------|-----------------|
3. I need you so, that I could die.  I love you so,

   F       G         C      Am         F       G
    _ _ _   _ _ _     _ _ _   _ _ _     _ _ _   _ _ _
   | | | | | | | |   | | | | | | | |   | | | | | | | |
e|---1-1-1-3-----1-|-0---0---5---0---|-----------------|
B|-------------0---|---3-----------3s|-1-1-1-1-3-----3-|
G|-----------0-----|-----------------|-------------0---|
D|-3---------------|-----------2-----|-3---------0-----|
A|-----------------|-3-------0-------|-----------------|
E|---------3-------|-----------------|---------3-------|
3. and that is why. Whenever I want you, all I... do is

   C       F           C       C7
    _ _ _   _ ___ _     _ _ _   _ _ _
   | | | | | |   | |   | | | | | | | |
e|-0-----------------|-----------------|
B|---3-1-----1-----1-|-1-----1-----1---|
G|-------------0h2---|-----0---3-----3-|
D|-------2-3---------|---2-------2-----|
A|-3-----------------|-3-------3-------|
E|-------------------|-----------------|
3. dream                   (to Chorus 2)


Verse 4:
-------

   C       Am        F       G         C       Am 
    _ _ _   _ _ _     _ _ _   _ _ _     _ _ _   _ _ _
   | | | | | | | |   | | | | | | | |   | | | | | | | |
e|-0---0---0-------|-----1-1-3-----1-|-0---0---0-------|
B|-----------------|-------------0---|-----------------|
G|---0---0-----2---|---2-------0-----|---0---0-----2---|
D|-----------2---2-|-3---------------|-----------2---2-|
A|-3-------0-------|-----------------|-3-------0-------|
E|-----------------|---------3-------|-----------------|
4. I need you so,    that I could die.  I love you so, 

   F       G         C       Am        F       G
    _ _ _   _ _ _     _ _ _   _ _ _     _ _ _   _ _ _
   | | | | | | | |   | | | | | | | |   | | | | | | | |
e|---1-1-1-3-----1-|-0---0---5---0---|-----------------|
B|-------------0---|---3-----------3s|-1-1-1-1-3-----3-|
G|-----------0-----|-----------------|-------------0---|
D|-3---------------|-----------2-----|-3---------0-----|
A|-----------------|-3-------0-------|-----------------|
E|---------3-------|-----------------|---------3-------|
4. and that is why. Whenever I want you, all I have to do is

   C       Am        F       G         C       F
    _ _ _   _ _ _     _ _ _   _ _ _     _ _ _   _ ___ _
   | | | | | | | |   | | | | | | | |   | | | | | |   | |
e|-0---------------|-5---5---3-----1-|-0-----------------|
B|---3-1-------1---|-------------0---|---3-1-----1-----1-|
G|-------0-2-------|---5---5---0-----|-------------0h2---|
D|-----------2---2-|-3---------------|-------2-3---------|
A|-3-------0-------|-----------------|-3-----------------|
E|-----------------|---------3-------|-------------------|
4.  Drea-ea-ea-ea-eam

   C

   | | | |
e|-0-------|
B|-1-------|
G|-0-------|
D|-2-------|
A|-3-------|
E|---------|


:·..·:·..·:·..·:·..·:


Intro: C


[C            Am ][  F            G ]
Drea-ea-ea-ea-eam, dream, dream, dream
[C            Am ][  F            G ]
Drea-ea-ea-ea-eam, dream, dream, dream


Verse 1:
-------

[    C      Am] [F      G ]
When I want you, in my arms
[    C      Am] [F            G ]
When I want you, and all your charms
[C            Am ][  F              G ]
Whenever I want you, all I have to do is
[C            Am ][  F              G ]
Drea-ea-ea-ea-eam, dream, dream, dream


Verse 2:
-------

[    C     Am  ][F      G ]
When I feel blue, in the night
[    C     Am  ][F        G ]
And I need you, to hold me tight
[C          Am  ][  F              G ]
Whenever I want you, all I have to do is
[C          F  ][C   C7  ]
Drea-ea-ea-ea-eam


Chorus:
------

F                    Em
I can make you mine, taste your lips of wine
[Dm      G     ][ C   C7 ]
Anytime, night or day
F               Em
Only trouble is, gee whiz
    D7               [G  F  Em  Dm]
I'm dreamin' my life away


Verse 3:
-------

[ C       Am ][ F           G ]
I need you so, that I could die
[ C       Am ][ F           G ]
I love you so, and that is why
[ C       Am ][ F                 G ]
Whenever I want you, all I have to do is


[ C       Am ]     [ F            G ]
Drea-ea-ea-ea-eam, dream, dream, dream
[C         F ] [C   C7   ]
Drea-ea-ea-ea-eam


Chorus:
------

F                    Em
I can make you mine, taste your lips of wine
[Dm      G     ][ C   C7 ]
Anytime, night or day
F               Em
Only trouble is, gee whiz
    D7               [G  F  Em  Dm]
I'm dreamin' my life away


Verse 4:
-------

[ C       Am ][ F           G ]
I need you so, that I could die
[ C       Am ][ F           G ]
I love you so, and that is why
[ C       Am ]     [ F            G ]
Whenever I want you, all I have to do is

[C            Am ][  F            G ]
Drea-ea-ea-ea-eam, dream, dream, dream
[C            Am ][  F            G ]
Drea-ea-ea-ea-eam, dream, dream, dream
[C         F ] C
Drea-ea-ea-ea-eam
Top
Previous Song  Previous | Next  Next Song