+
- 
My Guitar Songbook
Good Evening  |  Sign In 
All I Have To Do Is Dream... 

All I Have To Do Is Dream (Fingerstyle) - Ken Phong
 Artist: Ken Phong
 Audio Src: Tutorial
 Rated: ( 1 )  | 

Capo 4th Fret - 4/4 Time

Intro:
------

   C      Am         F       G         C      Am         F       G
    _ _ _   _ _ _     _ _ _   _ _ _     _ _ _   _ _ _     _ _ _   _ _ _
   | | | | | | | |   | | | | | | | |   | | | | | | | |   | | | | | | | |
e|-0---------------|-5---5---3---1---|-0---------------|-5---5---3-----1-|
B|---3-1-------1---|-----------------|---3-1-------1---|-------------0---|
G|-------0-2-------|---5---5---0---0-|-------0-2-------|---5---5---0-----|
D|-----------2---2-|-3---------------|-----------2---2-|-3---------------|
A|-3-------0-------|-----------------|-3-------0-------|-----------------|
E|-----------------|---------3-------|-----------------|---------3-------|
Drea-ea-ea-ea-eam, dream dream dream Drea-ea-ea-ea-eam, dream dream dream


Verse 1:
-------

   C      Am         F       G         C      Am         F       G
    _ _ _   _ _ _     _ _ _   _ _ _     _ _ _   _ _ _     _ _ _   _ _ _
   | | | | | | | |   | | | | | | | |   | | | | | | | |   | | | | | | | |
e|-0---0---0-------|-----1-1-3-----1-|-0---0---0-------|---1-1-1-3-----1-|
B|-----------------|-------------0---|-----------------|-------------0---|
G|---0---0-----2---|---2-------0-----|---0---0-----2---|-----------0-----|
D|-----------2---2-|-3---------------|-----------2---2-|-3---------------|
A|-3-------0-------|-----------------|-3-------0-------|-----------------|
E|-----------------|---------3-------|-----------------|---------3-------|
1. When I want you,     in my arms    When I want you, and all your charms

   C      Am         F       G         C      Am         F       G
    _ _ _   _ _ _     _ _ _   _ _ _     _ _ _   _ _ _     _ _ _   _ _ _
   | | | | | | | |   | | | | | | | |   | | | | | | | |   | | | | | | | |
e|-0---0---5---0---|-----------------|-0---------------|-5---5---3-----1-|
B|---3-------------|-1-1-1-1-3-----3-|---3-1-------1---|-------------0---|
G|-----------------|-------------0---|-------0-2-------|---5---5---0-----|
D|-----------2-----|-3---------0-----|-----------2---2-|-3---------------|
A|-3-------0-------|-----------------|-3-------0-------|-----------------|
E|-----------------|---------3-------|-----------------|---------3-------|
1. Whenever I want you, all I... do is Drea-ea-ea-ea-eam, dream dream dream


Verse 2:
-------

   C      Am         F       G         C      Am         F       G
    _ _ _   _ _ _     _ _ _   _ _ _     _ _ _   _ _ _     _ _ _   _ _ _
   | | | | | | | |   | | | | | | | |   | | | | | | | |   | | | | | | | |
e|-0---0---0-------|-----1-1-3-----1-|-0---0---0-------|---1-1-1-3-----1-|
B|-----------------|-------------0---|-----------------|-------------0---|
G|---0---0-----2---|---2-------0-----|---0---0-----2---|-----------0-----|
D|-----------2---2-|-3---------------|-----------2---2-|-3---------------|
A|-3-------0-------|-----------------|-3-------0-------|-----------------|
E|-----------------|---------3-------|-----------------|---------3-------|
2. When I feel blue, in the night        And I need you, to hold me tight

   C      Am         F       G         C        F          C       C7
    _ _ _   _ _ _     _ _ _   _ _ _     _ _ _   _ ___ _     _ _ _   _ _ _
   | | | | | | | |   | | | | | | | |   | | | | | |   | |   | | | | | | | |
e|-0---0---5---0---|-----------------|-0-----------------|-----------------|
B|---3-------------|-1-1-1-1-3-----3-|---3-1-----1-----1-|-1-----1-----1---|
G|-----------------|-------------0---|-------------0h2---|-----0---3-----3-|
D|-----------2-----|-3---------0-----|-------2-3---------|---2-------2-----|
A|-3-------0-------|-----------------|-3-----------------|-3-------3-------|
E|-----------------|---------3-------|-------------------|-----------------|
2. Whenever I want you, all I have to do is  Drea-ea-ea-ea-eam 


Chorus:
------

   F                 Em                Dm      G         C       C7
    _ _ _   _ _ _     _ _ _   _ _ _     _ _ _   _ _ _     _ _ _   _ _ _
   | | | | | | | |   | | | | | | | |   | | | | | | | |   | | | | | | | |
e|-5-5-5-5-5-------|-3-3-3-3-3-------|-1-0-1-------3-1-|-0---------------|
B|-------------6---|-----0-------0---|-3---------------|-------1-----1---|
G|-----5-----5---5-|-----0-----0---0-|-2-----2---------|-----0---3-----3-|
D|-3-----3---------|-----------------|-0---------0-----|---2-------2-----|
A|-----------------|-----------------|-----------------|-3-------3-------|
E|-----------------|-0---------------|---------3-------|-----------------|
I can make..mine taste your lips of wine Anytime,    night or day

   F                 Em                D7              [  G  F  Em  Dm   ]
    _ _ _   _ _ _     _ _ _   _ _ _     _ _ _   _ _ _     _ _ _   _ _ _
   | | | | | | | |   | | | | | | | |   | | | | | | | |   | | | | | | | |
e|-5-5-5-5-5-------|-----7s5-3-----3-|-5-5---5-5s3---2-|-3-----------1---|
B|-------------6---|-----0-------0---|-----------------|---------0---0---|
G|-----5-----5-----|---0-0-----0-----|-5-------5---2---|-----0-------0---|
D|-3-----3-------3-|-----------------|-0-------0-------|---0---0---0---0-|
A|-----------------|-----------------|-----0-----------|-----------------|
E|-----------------|-0-------0-------|-----------------|-3---------------|
Only trouble is,      gee whiz        I'm dreamin' my life away


Verse 3:
-------
                                              
   C      Am         F       G         C      Am         F       G
    _ _ _   _ _ _     _ _ _   _ _ _     _ _ _   _ _ _     _ _ _   _ _ _
   | | | | | | | |   | | | | | | | |   | | | | | | | |   | | | | | | | |
e|-0---0---0-------|-----1-1-3-----1-|-0---0---0-------|---1-1-1-3-----1-|
B|-----------------|-------------0---|-----------------|-------------0---|
G|---0---0-----2---|---2-------0-----|---0---0-----2---|-----------0-----|
D|-----------2---2-|-3---------------|-----------2---2-|-3---------------|
A|-3-------0-------|-----------------|-3-------0-------|-----------------|
E|-----------------|---------3-------|-----------------|---------3-------|
3. I need you so, that I could die     I love you so,  and that is why 

   C      Am         F       G         C      Am         F       G
    _ _ _   _ _ _     _ _ _   _ _ _     _ _ _   _ _ _     _ _ _   _ _ _
   | | | | | | | |   | | | | | | | |   | | | | | | | |   | | | | | | | |
e|-0---0---5---0---|-----------------|-0---------------|-5---5---3-----1-|
B|---3-------------|-1-1-1-1-3-----3-|---3-1-------1---|-------------0---|
G|-----------------|-------------0---|-------0-2-------|---5---5---0-----|
D|-----------2-----|-3---------0-----|-----------2---2-|-3---------------|
A|-3-------0-------|-----------------|-3-------0-------|-----------------|
E|-----------------|---------3-------|-----------------|---------3-------|
3. Whenever I want you, all I... do is Drea-ea-ea-ea-eam, dream dream dream

   C       F           C       C7
    _ _ _   _ ___ _     _ _ _   _ _ _
   | | | | | |   | |   | | | | | | | |
e|-0-----------------|-----------------|
B|---3-1-----1-----1-|-1-----1-----1---|
G|-------------0h2---|-----0---3-----3-|
D|-------2-3---------|---2-------2-----|
A|-3-----------------|-3-------3-------|
E|-------------------|-----------------|
3. dream


Chorus:
------

   F                 Em                Dm      G         C       C7
    _ _ _   _ _ _     _ _ _   _ _ _     _ _ _   _ _ _     _ _ _   _ _ _
   | | | | | | | |   | | | | | | | |   | | | | | | | |   | | | | | | | |
e|-5-5-5-5-5-------|-3-3-3-3-3-------|-1-0-1-------3-1-|-0---------------|
B|-------------6---|-----0-------0---|-3---------------|-------1-----1---|
G|-----5-----5---5-|-----0-----0---0-|-2-----2---------|-----0---3-----3-|
D|-3-----3---------|-----------------|-0---------0-----|---2-------2-----|
A|-----------------|-----------------|-----------------|-3-------3-------|
E|-----------------|-0---------------|---------3-------|-----------------|
I can make..mine taste your lips of wine Anytime,    night or day

   F                 Em                D7              [  G  F  Em  Dm   ]
    _ _ _   _ _ _     _ _ _   _ _ _     _ _ _   _ _ _     _ _ _   _ _ _
   | | | | | | | |   | | | | | | | |   | | | | | | | |   | | | | | | | |
e|-5-5-5-5-5-------|-----7s5-3-----3-|-5-5---5-5s3---2-|-3-----------1---|
B|-------------6---|-----0-------0---|-----------------|---------0---0---|
G|-----5-----5-----|---0-0-----0-----|-5-------5---2---|-----0-------0---|
D|-3-----3-------3-|-----------------|-0-------0-------|---0---0---0---0-|
A|-----------------|-----------------|-----0-----------|-----------------|
E|-----------------|-0-------0-------|-----------------|-3---------------|
Only trouble is,    gee whiz          I'm dreamin' my life away


Verse 4:
-------

   C      Am         F       G         C      Am         F       G
    _ _ _   _ _ _     _ _ _   _ _ _     _ _ _   _ _ _     _ _ _   _ _ _
   | | | | | | | |   | | | | | | | |   | | | | | | | |   | | | | | | | |
e|-0---0---0-------|-----1-1-3-----1-|-0---0---0-------|---1-1-1-3-----1-|
B|-----------------|-------------0---|-----------------|-------------0---|
G|---0---0-----2---|---2-------0-----|---0---0-----2---|-----------0-----|
D|-----------2---2-|-3---------------|-----------2---2-|-3---------------|
A|-3-------0-------|-----------------|-3-------0-------|-----------------|
E|-----------------|---------3-------|-----------------|---------3-------|
4. I need you so,    that I could die.  I love you so, and that is why

   C      Am         F       G         C      Am         F       G
    _ _ _   _ _ _     _ _ _   _ _ _     _ _ _   _ _ _     _ _ _   _ _ _
   | | | | | | | |   | | | | | | | |   | | | | | | | |   | | | | | | | |
e|-0---0---5---0---|-----------------|-0---------------|-5---5---3-----1-|
B|---3-------------|-1-1-1-1-3-----3-|---3-1-------1---|-------------0---|
G|-----------------|-------------0---|-------0-2-------|---5---5---0-----|
D|-----------2-----|-3---------0-----|-----------2---2-|-3---------------|
A|-3-------0-------|-----------------|-3-------0-------|-----------------|
E|-----------------|---------3-------|-----------------|---------3-------|
4. Whenever I want you, all I have to do is Drea-ea-ea-ea-eam

(repeat and fade out) 

   C       F           C
    _ _ _   _ ___ _     _ _ _   _ _ _
   | | | | | |   | |   | | | | | | | |
e|-0-----------------|-0---------------|
B|---3-1-----1-----1-|-1---------------|
G|-------------0h2---|-0---------------|
D|-------2-3---------|-2---------------|
A|-3-----------------|-3---------------|
E|-------------------|-----------------|
 
Previous Song  Previous | Next  Next Song