+
- 
My Guitar Songbook
Good Afternoon  |  Sign In 
6ths - A Powerful Way to Play... 

6ths - A Powerful Way to Play Melodically - Robert Renman
 Arranged By: Robert Renman
 Audio Src: Tutorial
 Rated: ( 1 )  | 

Key C - 4/4 Time

Key C:
-----

    F          C          G        Am
        __ __       _         __       __ 
    |  |  |  |  |  | |    |  |  |  |  |  |
e|----------13-12-10-8-|----10-------------|
B|---------------------|s12----12-13-12-10-|
G|----12s14----12-10-9-|-------------------|
D|---------------------|s12-------14-12-10-|
A|---------------------|-------------------|
E|---------------------|-------------------|

    F            C          G
         __ __       __        _     
    |   |  |  |  |  |  |    | | | | |
e|-----------13-12-10----|------------|
B|(10)----------------13-|-12-----8---|
G|-----12s14----12-------|------------|
D|(10)-------------------|-12---9-----|
A|-----------------------|------------|
E|-----------------------|------------|


*:·..·:*¨¨*:·..·:*¨¨*:·..·:*¨¨*


Key A
-----

    D          A        E      F#m
       __ __      _        _      _ 
    | |  |  |  | | |    | | |  | | |
e|---------10--9-7-5-|----7----------|
B|-------------------|s-9---9-10-9-7-|
G|----9s11-----9-7-6-|---------------|
D|-------------------|s-9-----11-9-7-|
A|-------------------|---------------|
E|-------------------|---------------|

    D          A        E
        __ __     __       _    
    |  |  |  | | |  |   | | | | |
e|----------10-9-7----|-----------|
B|-(7)-------------10-|-9-----5---|
G|-----9s11----9------|-----------|
D|-(7)----------------|-9---6-----|
A|--------------------|-----------|
E|--------------------|-----------|


*:·..·:*¨¨*:·..·:*¨¨*:·..·:*¨¨*


Key E
-----

    A        E        B     C#m
       __ _     _        _     _ 
    | |  | | | | |    | | | | | |
e|---------5-4-2-0-|----2---------|
B|-----------------|s-4---4-5-4-2-|
G|----4s-6---4-2-1-|--------------|
D|-----------------|s-4-----6-4-2-|
A|-----------------|--------------|
E|-----------------|--------------|

    A         E          B
        __ _     __       _ 
    |  |  | | | |  |   | | | | |
e|----------5-4-2----|-----------|
B|-(2)-------------5-|-4-----0---|
G|-----4s-6---4------|-----------|
D|-(2)---------------|-4---1-----|
A|-------------------|-----------|
E|-------------------|-----------|


*:·..·:*¨¨*:·..·:*¨¨*:·..·:*¨¨*


Key G
-----


    C        G        D     Em
       __ _     _        _     _ 
    | |  | | | | |    | | | | | |
e|---------8-7-5-3-|----5---------|
B|-----------------|s-7---7-8-7-5-|
G|----7s-9---7-5-4-|--------------|
D|-----------------|s-7-----9-7-5-|
A|-----------------|--------------|
E|-----------------|--------------|

    C         G          D
        __ _     _       _
    |  |  | | | | |   | | | | |
e|----------8-7-5---|-----------|
B|-(5)------------8-|-7-----3---|
G|-----7s-9---7-----|-----------|
D|-(5)--------------|-7---4-----|
A|------------------|-----------|
E|------------------|-----------|
Top
 
Previous Lick  Previous |