My Guitar Songbook
Good Morning  |  Sign In 
California Dreamin' 

Song Info  |  Tutorial  |  Tab  |  Rate
California Dreamin' - Rob Smith ( 1 )
 Capo 4th Fret - 4/4 Time
 Arranged By: Rob Smith
 Audio File From: Tutorial
Intro:
-----                                                E7sus4
    _   _   _   _     _   _   _   _     _   _   _
   | | | | | | | |   | | | | | | | |   | | | | | | |   |
e|-----------------|-----0-1-0-------|---------------|-0-----|
B|-----0---3-1---0-|-----------1-3p0-|-1---3-1-0-----|-0-----|
G|---2---2---------|---2-------------|-2---------2-0-|-2-----|
D|-2---------------|-2---------------|---2-----------|-0-----|
A|-----------------|-----------------|---------------|-2-----|
E|-----------------|-----------------|---------------|-0-----|


Verse 1:
-------
                  [Am  G][F          G    ]  E7sus4 [E7 '
All the leaves are brown  and the sky is gray
  '       F   ] [C  E ][Am         F  ]  E7sus4  E7
I've been for a walk       on a winter's day
                [ Am  G][F     G   ]    E7sus4   E7
I'd be safe and warm    if I was in L.A.
[Am   G  ][ F          G           ]    E7sus4   E7
California dreamin' on such a winter's day


Verse 2:
-------
                  [Am  G][F          G    ]  E7sus4 [E7 '
Stopped in to a church     I passed along the way
       '    F    ]  [C  E ] [Am       F  ]  E7sus4  E7
Well I got down on my knees   and I pretend to pray
                [ Am         G][F     G            ]  E7sus4   E7
You know the preacher liked the cold He knows I'm gonna stay
[Am   G  ][ F          G           ]    E7sus4   E7
California dreamin' on such a winter's day


Instrumental:
------------

   Am       Am                 Am

e|-0------|-0--0--0--0--0--0-|-0------|
B|-1------|-0--1--3--1--0--1-|-1------|
G|-2------|-2--2--2--2--2--2-|-2------|
D|-2------|------------------|-2------|
A|-0------|------------------|-0------|
E|--------|------------------|--------|

[Am  F]  [C  E]  [Am  F]  E7sus4  E7
[Am  G]  [F  G]  E7sus4   E7
[Am  G]  [F  G]  E7sus4   E7


Verse 3:
-------
                  [Am  G][F          G    ]  E7sus4 [E7 '
All the leaves are brown  and the sky is gray
 '        F   ] [C  E ][Am         F  ]  E7sus4  E7
I've been for a walk       on a winter's day
               [ Am  G][F     G   ]    E7sus4   E7
If I didn't tell her   I could leave today


Outro:
-----

[Am   G ] [F           G                ]
California dreamin' on such a winter's day
[Am   G ] [F           G                ]
California dreamin' on such a winter's day
[Am   G ] [F           G                ]
California dreamin' on such a winter's day
        
Song Info  |  Tutorial  |  Tab (pdf)  |  Rate  | 
 
  Previous Song  Previous | Next  Next Song