+
- 
My Guitar Songbook
Good Evening  |  Sign In 
Forever Young 

Forever Young - Audra Mae and The Forest Rangers
  Artist: Audra Mae and The Forest Rangers
 Audio: willc's Music Library
 Rated: ( 13 )  | 

Standard Tuning - 4/4 Time

Intro:
-----

     | |   | |     | |   | |     | |   | |     | | | |
e|-------------|-------------|-------------|-----------|
B|-------------|-------------|-------------|-----------|
G|-----2-4s6---|-----2-4s6---|-----2-4s6---|-6s4-2-2---|
D|-2h4---------|-2h4---------|-2h4---------|-----------|
A|-------------|-------------|-------------|-----------|
E|-------------|-------------|-------------|-----------|


Suggested Picking Pattern: (Travis Pick)
-------------------------
      _   _   _
   | | | | | | |
e|-*-------*-----|
B|-----*-------*-|
G|---------------|
D|-*-*---*---*---|
A|-*-----*-------|
E|-*-----*-------|
   |     |
  Root note of the chord


Verse 1:
-------

   A               A
      _   _   _       _   _   _
   | | | | | | |   | | | | | | |
e|---------0-----|---------0-----|
B|-----2-------2-|-----2-------2-|
G|---------------|---------------|
D|---2-------2---|---2-------2---|
A|-0-----0-------|-0-----0-------|
E|---------------|---------------|
 May God bless and keep you always,

   D                A
      _   _   _       _   _   _ 
   | | | | | | |   | | | | | | |
e|---------2-----|---------0-----|
B|-----3-------3-|-----2-------2-|
G|---2-------2---|---------------|
D|-0-----0-------|---2-------2---|
A|---------------|-0-----0-------|
E|---------------|---------------|
 May your wishes all come true,

   A               A
      _   _   _       _   _   _ 
   | | | | | | |   | | | | | | |
e|---------0-----|---------0-----|
B|-----2-------2-|-----2-------2-|
G|---------------|---------------|
D|---2-------2---|---2-------2---|
A|-0-----0-------|-0-----0-------|
E|---------------|---------------|
 May you always do for others

   E                E   
      _   _   _       _   _   _ 
   | | | | | | |   | | | | | | |
e|---------0-----|---------0-----|
B|-----0-------0-|-----0-------0-|
G|---------------|---------------|
D|---2-------2---|---2-------2---|
A|---------------|---------------|
E|-0-----0-------|-0-----0-------|
 And let others do for you.

   A               A
      _   _   _       _   _   _ 
   | | | | | | |   | | | | | | |
e|---------0-----|---------0-----|
B|-----2-------2-|-----2-------2-|
G|---------------|---------------|
D|---2-------2---|---2-------2---|
A|-0-----0-------|-0-----0-------|
E|---------------|---------------|
 May you build a ladder to the stars

   D               Bm              Bm
      _   _   _       _   _   _       _   _   _
   | | | | | | |   | | | | | | |   | | | | | | |
e|---------2-----|---------2-----|---------2-----|
B|-----3-------3-|-----3-------3-|-----3-------3-|
G|---2-------2---|---------------|---------------|
D|-0-----0-------|---4-------4---|---4-------4---|
A|---------------|-2-----2-------|-2-----2-------|
E|---------------|---------------|---------------|
 And climb on every rung,

   A               E               A               A
      _   _   _       _   _   _       _   _   _       _   _   _
   | | | | | | |   | | | | | | |   | | | | | | |   | | | | | | |
e|---------0-----|---------0-----|---------0-----|---------0-----|
B|-----2-------2-|-----0-------0-|-----2-------2-|-----2-------2-|
G|---------------|---------------|---------------|---------------|
D|---2-------2---|---2-------2---|---2-------2---|---2-------2---|
A|-0-----0-------|---------------|-0-----0-------|-0-----0-------|
E|---------------|-0-----0-------|---------------|---------------|
  May you stay forever              young

   A               E               A               A
      _   _   _       _   _   _       _   _   _       _   _   _
   | | | | | | |   | | | | | | |   | | | | | | |   | | | | | | |
e|---------0-----|---------0-----|---------0-----|---------0-----|
B|-----2-------2-|-----0-------0-|-----2-------2-|-----2-------2-|
G|---------------|---------------|---------------|---------------|
D|---2-------2---|---2-------2---|---2-------2---|---2-------2---|
A|-0-----0-------|---------------|-0-----0-------|-0-----0-------|
E|---------------|-0-----0-------|---------------|---------------|
  May you stay forever              young


Solo:
----

     | |   |  |      | |   |  |      | |   |  |
e|---------------|---------------|---------------|
B|---------------|---------------|---------------|
G|-----2-4s6-(6)-|-----2-4s2-(2)-|-----2-4s6-(6)-|
D|-2h4-----------|-2h4-----------|-2h4-----------|
A|---------------|---------------|---------------|
E|---------------|---------------|---------------|

     | | |  |      | |   |  |
e|-------------|---------------|
B|-------------|---------------|
G|-6s4-2-2-(2)-|-----2-4s6-(6)-|
D|-------------|-2h4-----------|
A|-------------|---------------|
E|-------------|---------------|


Verse 2:
-------
         A             '
May you grow up to be righteous,
         D             '
May you grow up to be true,
         A                A
May you always know the truth
              E                '
And see the lights surrounding you.
          A               '
May you always be courageous,
          D            Bm    '
Stand upright and be strong,
         A    E        A     '
May you stay forever young
         A    E        A     '
May you stay forever young


Solo: Verse chords


Verse 3:
-------
         A                '
May your hands always be busy,
          D               A
May your feet always be swift,
          A               '
May you have a strong foundation
           E              '
When the winds of changes shift.
         A                '
May your heart always be joyful,
          D              Bm   '
May your song always be sung,
         A    E        A      '
May you stay forever young
         A    E        A      '
May you stay forever young
 
Previous Song  Previous | Next  Next Song