My Guitar Songbook
Good Morning   |  Sign In 
The Power of Love

Breakdown Song Info  |   Tutorial  |  MyTab

The Power of Love - Jenifer Rush

 Capo 8th Fret - 4/4 Time
 Audio File From willc's Music Library
 View Song Info
 Download MyTab
Verse 1:
-------

  (G)              C                           Am
        _   _ _     _               _   _ _
   | | | | | | |   | | | | |   | | | | | | |   | | | |
e|---------------|-----------|---------------|---------|
B|---------------|-----------|-----------1-0-|---------|
G|-----0-0-------|-0-0-------|---0-0-0-0-----|-2-------|
D|---2-------3-2-|-----------|---------------|---------|
A|---------------|-----------|---------------|---------|
E|---------------|-----------|---------------|---------|
 The whispers in the morning of lovers sleeping tight,

                   C                         G
        _   _ _     _               _   _
   | | | | | | |   | | | | |   | | | | | |   | | | |
e|---------------|-----------|-------------|---------|
B|-----------0-1-|-----------|-------------|---------|
G|-----2-2-2-----|-0---0-----|-----0-0-----|---------|
D|---------------|---2-------|---2-----3-2-|-0-------|
A|---------------|-----------|-------------|---------|
E|---------------|-----------|-------------|---------|
 are rolling by like thunder now, as I look in your eyes.


Verse 2:
-------
                     C                         Am
      _     _ _ _     _               _   _
   | | | | | | | |   | | | | |   | | | | | |   | | | |
e|-----------------|-----------|-------------|---------|
B|-----------------|-----------|---------1-0-|---------|
G|-----0-0-----0-2-|-2-0-------|-----0-0-----|-2-------|
D|---2-----2-2-----|-----------|-2-----------|---------|
A|-----------------|-----------|-------------|---------|
E|-----------------|-----------|-------------|---------|
 I hold on to your body and feel each move you make,

                 F               C               G
        _   _     _ _       _     _ _       _
   | | | | | |   | | | | | | |   | | | | | | |   | | | |
e|-------------|---------------|---------------|---------|
B|---------0-1-|-1---------0-1-|-1---------1-3-|-3-------|
G|---2-2-2-----|---2-----2-----|---0-----------|---------|
D|-------------|---------------|---------------|---------|
A|-------------|---------------|---------------|---------|
E|-------------|---------------|---------------|---------|
 your voice is warm and tender, a love that 
                                    I could not forsake.


Chorus 1:
------

   G             C                         F
        _   _     _               _   _     _ _
   | | | | | |   | | | | |   | | | | | |   | | | | |
e|-----------1-|---0-------|---------0---|-----------|
B|-----1-1-3- -|-----------|-----1-3---1-|---0-------|
G|---0---------|-----------|---0---------|-----2-----|
D|-------------|-----------|-------------|-----------|
A|-------------|-----------|-------------|-----------|
E|-------------|-----------|-------------|-----------|
 Cause I`m your lady           and you are my man,

                 Dm                            G
        _   _     _ _             _   _   _     _ _  
   | | | | | |   | | | | | |   | | | | | | |   | | | | | |
e|---------0-1-|-------------|-----------0-0-|---1-0-------|
B|---1-1-3-----|-------------|---1-1-1-3-----|-------3-----|
G|-------------|---2-0-2-----|---------------|-------------|
D|-------------|-------------|---------------|-------------|
A|-------------|-------------|---------------|-------------|
E|-------------|-------------|---------------|-------------|
 whenever you reach for me,     I`ll do all that I can.


Verse 3:
-------

  G                C                           Am
        _   _ _     _               _   _ _
   | | | | | | |   | | | | |   | | | | | | |   | | | |
e|---------------|-----------|---------------|---------|
B|---------------|-----------|-----------1-0-|---------|
G|-----0-0-------|-0-0-------|---0-0-0-0-----|-2-------|
D|---2-------3-2-|-----------|---------------|---------|
A|---------------|-----------|---------------|---------|
E|---------------|-----------|---------------|---------|
 Lost is how I'm feeling,         lying in your arms 

                   C                         G
        _   _ _     _               _   _
   | | | | | | |   | | | | |   | | | | | |   | | | |
e|---------------|-----------|-------------|---------|
B|-----------0-1-|-----------|-------------|---------|
G|-----2-2-2-----|-0---0-----|-----0-0-----|---------|
D|---------------|---2-------|---2-----3-2-|-0-------|
A|---------------|-----------|-------------|---------|
E|---------------|-----------|-------------|---------|
 When the world outside is too much to take 
                      that all ends when I'm with you

Verse 4:
-------

  G                C                           Am
        _   _ _     _               _   _ _
   | | | | | | |   | | | | |   | | | | | | |   | | | |
e|---------------|-----------|---------------|---------|
B|---------------|-----------|-----------1-0-|---------|
G|-----0-0-------|-0-0-------|---0-0-0-0-----|-2-------|
D|---2-------3-2-|-----------|---------------|---------|
A|---------------|-----------|---------------|---------|
E|---------------|-----------|---------------|---------|
 Even though there may be times, it seems I'm far away 

                 F               C               G
        _   _     _ _       _     _ _       _
   | | | | | |   | | | | | | |   | | | | | | |   | | | |
e|-------------|---------------|---------------|---------|
B|---------0-1-|-1---------0-1-|-1---------1-3-|-3-------|
G|---2-2-2-----|---2-----2-----|---0-----------|---------|
D|-------------|---------------|---------------|---------|
A|-------------|---------------|---------------|---------|
E|-------------|---------------|---------------|---------|
 Never wonder where I am, 'cause I am always by your side


Chorus 2:
--------

   G             C                         F
        _   _     _               _   _     _ _
   | | | | | |   | | | | |   | | | | | |   | | | | |
e|-----------1-|---0-------|---------0---|-----------|
B|-----1-1-3---|-----------|-----1-3---1-|---0-------|
G|---0---------|-----------|---0---------|-----2-----|
D|-------------|-----------|-------------|-----------|
A|-------------|-----------|-------------|-----------|
E|-------------|-----------|-------------|-----------|
 Cause I`m your lady and you are my man,

                 Dm                            G
        _   _     _ _             _   _   _     _ _  
   | | | | | |   | | | | | |   | | | | | | |   | | | | | |
e|---------0-1-|-------------|-----------0-0-|---1-0-------|
B|---1-1-3-----|-------------|---1-1-1-3-----|-------3-----|
G|-------------|---2-0-2-----|---------------|-------------|
D|-------------|-------------|---------------|-------------|
A|-------------|-------------|---------------|-------------|
E|-------------|-------------|---------------|-------------|
 whenever you reach for me, I`ll do all that I can.

Tag 1:

  G           C               C             F
   _           _   _ _         _       _     _ _
  | | | | |   | | | | | | |   | | | | | |   | | | | | | 
e|----3-0---|-0---0---------|---------0---|-------------|
B|--------3-|---3---3-1-----|-1-1-1-3---1-|---0---------|
G|--0-------|---------------|-------------|-----2-------|
D|----------|---------------|-------------|-------------|
A|----------|---------------|-------------|-------------|
E|----------|---------------|-------------|-------------|
 We're heading for something, somewhere I've never been

   F             Dm                G     F         C
        _   _     _   _   _   _       _   _   _
   | | | | | |   | | | | | | | |   | | | | | | |   | | | |
e|---------0-1-|---1-1-1-1-0-0---|---------------|---------|
B|---1-1-3-----|---------------3-|-------1-1-1-1-|(1)------| x2
G|-------------|-----------------|---0-0---------|---------|
D|-------------|-----------------|---------------|---------|
A|-------------|-----------------|---------------|---------|
E|-------------|-----------------|---------------|---------|
 Sometimes I am frightened, but I'm ready 
                            to learn of the power of love


Bridge:
------

   F     G         C               F     G         Am    G
      _   _   _     _   _ _           _     _ _
   | | | | | | |   | | | | | | |   | | | | | | |   | | | |
e|---------------|-0---0---------|---------------|---------|
B|-----1-0-0-1-3-|---3---3-1-----|---1-1-0-------|---------|
G|---------------|---------------|-----------2-0-|-2-------|
D|---------------|---------------|---------------|---------|
A|---------------|---------------|---------------|---------|
E|---------------|---------------|---------------|---------|
 The sound of your heart beating, made it clear suddenly,

   F     G         C    Am     G       F         G
      _   _   _       _   _ _   _ _
   | | | | | | |   | | | | | | | | |   | | | |   | | | |   
e|---------------|-3-0---0-------0---|-------0-|---------|
B|-----1-0-0-1-3-|-----3---3-1-3---1-|-1-1-3---|-3-------|
G|---------------|-------------------|---------|---------|
D|---------------|-------------------|---------|---------|
A|---------------|-------------------|---------|---------|
E|---------------|-------------------|---------|---------|
 the feeling that I can`t go on, is light-years away.


Chorus 3:
--------

   G             C                         F
        _   _     _               _   _     _ _
   | | | | | |   | | | | |   | | | | | |   | | | | |
e|-----------1-|---0-------|---------0---|-----------|
B|-----1-1-3---|-----------|-----1-3---1-|---0-------|
G|---0---------|-----------|---0---------|-----2-----|
D|-------------|-----------|-------------|-----------|
A|-------------|-----------|-------------|-----------|
E|-------------|-----------|-------------|-----------|
 Cause I`m your lady and you are my man,

                 Dm                            G
        _   _     _ _             _   _   _     _ _  
   | | | | | |   | | | | | |   | | | | | | |   | | | | | |
e|---------0-1-|-------------|-----------0-0-|---1-0-------|
B|---1-1-3-----|-------------|---1-1-1-3-----|-------3-----|
G|-------------|---2-0-2-----|---------------|-------------|
D|-------------|-------------|---------------|-------------|
A|-------------|-------------|---------------|-------------|
E|-------------|-------------|---------------|-------------|
 whenever you reach for me, I`ll do all that I can.

Tag 2:

  G           C               C                 F
   _           _   _ _           _   _   _ _     _
  | | | | |   | | | | | | |   | | | | | | | |   | | | | |
e|----3-0---|-0---0---------|---3-3-3-0---0-0-|-----------|
B|--------3-|---3---3-1-----|-----------------|-3-1-------|
G|--0-------|---------------|-----------------|-----------|
D|----------|---------------|-----------------|-----------|
A|----------|---------------|-----------------|-----------|
E|----------|---------------|-----------------|-----------|
 We're heading for something, somewhere I've never been

   F             Dm                G     F         C
        _   _     _   _   _   _       _   _   _
   | | | | | |   | | | | | | | |   | | | | | | |   | | | |
e|---------0-1-|---1-1-1-1-0-0---|---------------|---------|
B|---1-1-3-----|---------------3-|-------1-1-1-1-|(1)------| x2
G|-------------|-----------------|---0-0---------|---------|
D|-------------|-----------------|---------------|---------|
A|-------------|-----------------|---------------|---------|
E|-------------|-----------------|---------------|---------|
 Sometimes I am frightened, but I'm ready 
                            to learn of the power of love


Outro:
-----

  G           C               C                 F
   _           _   _ _           _   _   _ _     _
  | | | | |   | | | | | | |   | | | | | | | |   | | | | |
e|----3-0---|-0---0---------|---3-3-3-0-0-0-0-|-----------|
B|--------3-|---3---3-1-----|-----------------|-3-1-------|
G|--0-------|---------------|-----------------|-------2---|
D|----------|---------------|-----------------|-----------|
A|----------|---------------|-----------------|-----------|
E|----------|---------------|-----------------|-----------|
  We're heading for something, somewhere I've never been

   F             Dm                G     F         C
        _   _     _   _   _   _       _   _   _     _ _
   | | | | | |   | | | | | | | |   | | | | | | |   | | | | | |
e|---------0-1-|---1-1-1-1-0-0---|-------3-0-----|-------------|
B|---1-1-3-----|---------------3-|---3-3-----3-3-|-3-3-1-------| x2
G|-------------|-----------------|---------------|-------------|
D|-------------|-----------------|---------------|-------------|
A|-------------|-----------------|---------------|-------------|
E|-------------|-----------------|---------------|-------------|
 Sometimes I am frightened, but I'm ready 
                            to learn of the power of love

   C                                           F
    _   _   _ _ _                   _   _ _     _
   | | | | | | | |   | | | |   | | | | | | |   | | | | |
e|-3-3-3-0-----0---|---------|---3-3-0---0-0-|-----------|
B|---------3-3---3-|-1-------|---------3-----|-3-1-------|
G|-----------------|---------|---------------|-----------|
D|-----------------|---------|---------------|-----------|
A|-----------------|---------|---------------|-----------|
E|-----------------|---------|---------------|-----------|
 Oh the power of love          Oh the power of love

   F             Dm                G     F         C
        _   _     _   _   _   _       _   _   _       _ _ _
   | | | | | |   | | | | | | | |   | | | | | | |   | | | | |
e|---------0-1-|---1-1-1-1-0-0---|-------------3-|---0---0---|
B|---1-1-3-----|---------------3-|-------1-1-1---|-----3---1-|
G|-------------|-----------------|---0-0---------|-----------|
D|-------------|-----------------|---------------|-----------|
A|-------------|-----------------|---------------|-----------|
E|-------------|-----------------|---------------|-----------|
 Sometimes I am frightened, but I'm ready 
                            to learn of the power of love


*:·..·:*¨¨*:·..·:*¨¨*:·..·:*


Lyrics and Chords:
------------------

Verse 1:
-------

(G)                 C          '               Am
The whispers in the morning of lovers sleeping tight
Am                  C           '                 G
Are rolling by like thunder now as I look in your eyes

Verse 2:
-------

G                   C          '               Am
I hold on to your body and feel each move you make
Am                     F       C                       G
Your voice is warm and tender a love that I could not forsake


Chorus 1:
--------

   G             C         '         F
Cause I am your lady and you are my man
  F              Dm        '                   G
Whenever you reach for me I'll do all that I can


Verse 3:
-------

G                C          '            Am
Lost is how I'm feeling, lying in your arms
Am               C           '                             G
when the world outside is too much to take that all ends when I'm with you


Verse 4:
-------

G                   C          '               Am
Even though there may be times It seems I'm far away
Am             F              C                       G
But never wonder where I am 'cause I am always by your side


Chorus 2:
--------

   G             C         '         F
Cause I am your lady and you are my man
  F              Dm        '                   G
Whenever you reach for me I'll do all that I can

 G                 '          '                  F
We're heading for something somewhere I've never been
F             Dm              [ G     F    ]                 C
Sometimes I am frightened But I'm ready to learn 'bout the power of love


Bridge:
------

[  F     G     ] [ C             [ F     G    ][   Am    G  ]
The sound of your heart beating made it clear suddenly
[  F     G     ] [ C    Am     G ][    F         G  ]
The feeling that I can't go on is light-years away


Chorus 3:
--------

   G             C         '         F
Cause I am your lady and you are my man
  F              Dm        '                   G
Whenever you reach for me I'll do all that I can

 G                 '          '                  F
We're heading for something somewhere I've never been
F             Dm              [ G     F    ]                 C
Sometimes I am frightened But I'm ready to learn 'bout the power of love


Outro:
-----
G           C               C                 F
We're heading for something, somewhere I've never been
F             Dm                [ G     F     ]   C
Sometimes I am frightened, but I'm ready 
                            to learn of the power of love
   C             '         '                   F
Oh the power of love          Oh the power of love
F             Dm                [ G     F     ]   C
Sometimes I am frightened, but I'm ready 
                            to learn of the power of love
        
  Song Info  |   Tutorial  |  MyTab
 
 

Rate this Song
Website Stats
The Power of Love - Jenifer Rush




The Power of Love - Jenifer Rush
Adder: Bill Charrette [ willc ]
Date: 5/17/2018
Updated: 1/29/2021
Audio: willc's Music Library
Rated: (3) Hot! Popular!
Views: 1086
MyTab DL: 653
Genre: Pop
 
  Previous Song  Previous | Next  Next Song   

The Power of Love

Please visit the Tutorial for the original tab, full lesson, and complete breakdown of this arrangement.

The Tab file here is my own work and represents my interpretation of the song. Tab files with reference to any artist are not meant to be actual transcriptions of copyrighted material. All rights belong to the copyright holders.

 Download MyTab (PDF)

The Power of Love - Jenifer Rush
The Power of Love

"The Power of Love" is a song co-written and originally recorded by Jennifer Rush in 1984. It has been covered by several artists, most notably by Celine Dion, Laura Branigan and Air Supply. Rush's original version, released in her native United States at the end of 1984 and in Europe during 1985, went to number one in the United Kingdom in October 1985 and became the biggest-selling single of the year in that country. It was also a number one single in several other European countries, as well as Canada, Australia and New Zealand.

Watch: YouTube Video

Read More  Read More