+
- 
My Guitar Songbook
Good Evening  |  Sign In 
Dirty Blues in E Podcast 30 

Dirty Blues in E Podcast 30 - John W Tuggle
 Arranged By: John W Tuggle
 Audio Src: Tutorial
 Rated: ( 9 )  | 

Key E - 12/8 Time

Lick:
----

Minor (Box 2)          Minor (Box 1)
                _
   | | |   |   | | |   |     | |   | | |
e|-------3h4---------|-0---------------0-|
B|---3-5-----5p3---3-|---------------0---|
G|s4-------------4---|-2h3r2p0---0h1-----|
D|-------------------|---------2---------|
A|-------------------|-------------------|
E|-------------------|-------------------|


Dirty Blues in E Rhythm & Lead (12 Bar)
---------------------------------------

   E
    _   _   _   _
   | | | | | | | |
e|-----------------|-----
B|-----------------|-----
G|-----------------|----- Play Lick
D|-----------------|-----
A|-2-2-4-4-2-2-4-4-|-2---
E|-0-0-0-0-0-0-0-0-|-0---

   E
    _   _   _   _
   | | | | | | | |
e|-----------------|-----
B|-----------------|-----
G|-----------------|----- Play Lick
D|-----------------|-----
A|-2-2-4-4-2-2-4-4-|-2---
E|-0-0-0-0-0-0-0-0-|-0---

   A
    _   _   _   _
   | | | | | | | |
e|-----------------|-----
B|-----------------|-----
G|-----------------|----- Play Lick
D|-2-2-4-4-2-2-4-4-|-2---
A|-0-0-0-0-0-0-0-0-|-0---
E|-----------------|-----

   E
    _   _   _   _
   | | | | | | | |
e|-----------------|-----
B|-----------------|-----
G|-----------------|----- Play Lick
D|-----------------|-----
A|-2-2-4-4-2-2-4-4-|-2---
E|-0-0-0-0-0-0-0-0-|-0---

   B7                  A
    _   _   _   _     _
   | | | | | | | |   | |
e|-2---------------|-----
B|-0---------------|---2-
G|-2---------------|---2- Play Lick
D|-1---------------|---2-
A|-2-------------2-|-1-0-
E|-----------------|----

   E                        B7
    _   _   _   _         _  
   | | | | | | | |   | | | | |
e|-----------------|---0-----2---|
B|-----------------|---0-----0---|
G|-----------------|---1-----2---|
D|-----------------|---2-----1---|
A|-2-2-4-4-2-2-4-4-|-2---0-1-2---|
E|-0-0-0-0-0-0-0-0-|-0-----------|


*:·..·:*¨¨*:·..·:*¨¨*:·..·:*¨¨*


Key A (Transposed - Original Key E):
-----

Lick:
----

Minor (Box 2)            Minor (Box 1)
                  _
   | |  |   |    | | |   |     | |   | | |
e|--------8h9----------|-5---------------5-|
B|---8-10-----10p8---8-|---------------5---|
G|s9---------------9---|-7h8r7p5---5h6-----|
D|---------------------|---------7---------|
A|---------------------|-------------------|
E|---------------------|-------------------|
Top
 
Previous Lick  Previous | Next  Next Lick