+
- 
My Guitar Songbook
Good Evening  |  Sign In 
Licks For Rock Soloing 

Licks For Rock Soloing - Gary Potter
 Artist: Gary Potter
 Audio Src: Tutorial
 Rated: ( 5 )  | 

Key A - 4/4 Time

Key A: 
-----

Lick 1:
    _ __   _ _   _ _ 
   | |  | | | | | | | | 
e|-5---------------------|
B|---8p-5----------------|
G|--------7-5---7brp5----|
D|------------7-------7v-|
A|-----------------------|
E|-----------------------|

Lick 2:
    _ _   _ _     _ _ 
   | | | | | |   | | | |
e|------------------------|
B|------------------------|
G|-7p5---5----------------|
D|-----7---7-5------------|
A|-------------7s5-3---3v-|
E|-------------------5----|

Lick 3:
    _ _   _ __   _
   | | | | |  | | | |
e|--------------8b--5v-|
B|-------5h8p-5--------|
G|---5h7---------------|
D|-7-------------------|
A|---------------------|
E|---------------------|

Lick 4:
    __ _    _ ___    _ _
   |  | |  | |   |  | | | |
e|------8--------------------|
B|-8h10---10p8---------------|
G|-------------9s7p-5--------|
D|--------------------7p5----|
A|------------------------7v-|
E|---------------------------|


*:·..·:*¨¨*:·..·:*¨¨*:·..·:*¨¨*


Connect all 4 licks to fit over 4 measures.
Note: 3rd lick changed a little bit


   Lick 1                  Lick 2
    _ _   _ _   __ _        _ _   _ _     _ _ 
   | | | | | | |  | | |    | | | | | |   | | | |
e|-5---------------------|------------------------|
B|---8p5-----------------|------------------------|
G|-------7-5---7b-rp5----|-7p5---5----------------|
D|-----------7--------7v-|-----7---7-5------------|
A|-----------------------|-------------7s5-3---3v-|
E|-----------------------|-------------------5----|

   Lick 3            Lick 4
    __ __   __ __     __ _    _ ___    _ _
   |  |  | |  |  |   |  | |  | |   |  | | | |
e|-----------------|------8--------------------|
B|---------5h-8p-5-|-8h10---10p8---------------|
G|----5h-7---------|-------------9s7p-5--------|
D|-7---------------|--------------------7p5----|
A|-----------------|------------------------7v-|
E|-----------------|---------------------------|
 
Previous Lick  Previous | Next  Next Lick