+
- 
My Guitar Songbook
Good Evening  |  Sign In 
SRV Pride & Joy Guitar Lick  

Info  |  Tutorial  |  Tab  |  Rate It  |  Share
SRV Pride & Joy Guitar Lick - Robert Renman
 Arranged By: Robert Renman
 Audio Src: Tutorial
 Rated: ( 3 )  | 

Key E - 4/4 Time

Key E:
-----
    ___ __    __ __        __ __ 
   |   |  |  |  |  |  |   |  |  |
e|-------12-----------------------|
B|----12----12-15-12--------------|
G|14b----------------14b-12-14----|
D|-----------------------------14-|
A|--------------------------------|
E|--------------------------------|


*:·..·:*¨¨*:·..·:*¨¨*:·..·:*¨¨*


Key E (One Octave Lower):
-----
    __ _   _ _      _ _ 
   |  | | | | | |  | | |
e|------0----------------|
B|----0---0-3-0----------|
G|-2b-----------2b-0-2---|
D|---------------------2-|
A|-----------------------|
E|-----------------------|
Top
 
Previous Lick  Previous | Next  Next Lick