+
- 
My Guitar Songbook
Good Evening  |  Sign In 
Eric Clapton C Major Blues Lick  

Info  |  Tutorial  |  Tab  |  Rate It  |  Share
Eric Clapton C Major Blues Lick - Shawn Bradshaw
 Arranged By: Shawn Bradshaw
 Audio Src: Tutorial
 Rated: ( 2 )  | 

Key C - 4/4 Time

                  C
          _ __        _ 
   | | | | |  |   |  | |  |  |
e|--------------|-8----8-10b---|
B|---------8-10-|---10---------|
G|-----8-9------|--------------|
D|--------------|--------------|
A|--------------|--------------|
E|--------------|--------------|


Here is the lick for F and G:

                    F
              __       ___
   | | |  |  |  |   | |   |  |  |
e|----------------|13----13-15b---|
B|----------13-15-|---15----------|
G|----13-14-------|---------------|
D|----------------|---------------|
A|----------------|---------------|
E|----------------|---------------|

                    G
           __ __        __
   | | |  |  |  |   |  |  |  |  |
e|----------------|15----15-17b---|
B|----------15-17-|---17----------|
G|----15-16-------|---------------|
D|----------------|---------------|
A|----------------|---------------|
E|----------------|---------------|
Top
 
Previous Lick  Previous | Next  Next Lick