+
- 
My Guitar Songbook
Good Morning  |  Sign In 
Gary Moore Lick  

Info  |  Tutorial  |  Tab  |  Rate It  |  Share
Gary Moore Lick - Robert Renman
 Arranged By: Robert Renman
 Audio Src: Tutorial
 Rated: ( 2 )  | 

Key B - 4/4 Time

Key B:
-----
            __ __ _   ___ ___
   |   |   |  |  | | |   |   |
e|---------7-------------------|
B|10b(10b)---10p-7-------------|
G|-----------------9-7b-(7b)---|
D|---------------------------9-|
A|-----------------------------|
E|-----------------------------|

    _ __    __   __    __     ___    _ __   _     ___
   | |  |  |  | |  |  |  |   |   |  | |  | | |   |   |
e|------7-10p-7-9p-7-------|-------------------------7-|
B|---7---------------10p-7-|10p--7---------------------|
G|s8-----------------------|-------10-9p-7---8b-(8b)---|
D|-------------------------|---------------9-----------|
A|-------------------------|---------------------------|
E|-------------------------|---------------------------|


*:·..·:*¨¨*:·..·:*¨¨*:·..·:*¨¨*


Key E (Transposed - Original Key B):
-----

            _ __ _   __ __
   |   |   | |  | | |  |  |
e|---------0----------------|
B|-3b-(3b)---3p-0-----------|
G|----------------2-0-(0)---|
D|------------------------2-|
A|--------------------------|
E|--------------------------|

    _ _   __   __   __     __   _ __   _     ___
   | | | |  | |  | |  |   |  | | |  | | |   |   |
e|-----0-3p-0-2p-0------|-----------------------0-|
B|---0-------------3p-0-|-3p-0--------------------|
G|-1--------------------|------3-2p-0---1b-(1b)---|
D|----------------------|-------------2-----------|
A|----------------------|-------------------------|
E|----------------------|-------------------------|
Top
 
Previous Lick  Previous | Next  Next Lick