+
- 
My Guitar Songbook
Good Morning  |  Sign In 
Licks played in the key of C  

Info  |  Tutorial  |  Tab  |  Rate It  |  Share
Licks played in the key of C - Robert Renman
 Arranged By: Robert Renman
 Audio Src: Tutorial
 Rated: ( 4 )  | 

Key C - 4/4 Time

Key C
-----

MAJOR (Box 1)
    __    ___   ___ __ __
   |  |  |   | |   |  |  | |
e|----8-10b-10-8h-10p-8----8-|
B|10b-------------------10---|
G|---------------------------|
D|---------------------------|
A|---------------------------|
E|---------------------------|

MINOR (Box 1)
           __ __ __ 
   |   |  |  |  |  |  |  |
e|13b-13-11----11-13-11----|
B|----------13----------13-|
G|-------------------------|
D|-------------------------|
A|-------------------------|
E|-------------------------|


*:·..·:*¨¨*:·..·:*¨¨*:·..·:*¨¨*


Key E (Transposed - Original Key C):
-----

MAJOR (Box 1)
    __    ___   ___ __ __
   |  |  |   | |   |  |  | |
e|----0--2b--2-0h--2p-0----0-|
B|-2b--------------------2---|
G|---------------------------|
D|---------------------------|
A|---------------------------|
E|---------------------------|

MINOR (Box 1)
           __ __ __ 
   |   |  |  |  |  |  |  |
e|-5b--5--3-----3--5--3----|
B|-----------5-----------5-|
G|-------------------------|
D|-------------------------|
A|-------------------------|
E|-------------------------|
Top
 
Previous Lick  Previous | Next  Next Lick