+
- 
My Guitar Songbook
Good Evening  |  Sign In 
Slow Blues IV Chord Lick Expanded  

Info  |  Tutorial  |  Tab  |  Rate It  |  Share
Slow Blues IV Chord Lick Expanded - Jim Clymer
 Arranged By: Jim Clymer
 Audio Src: Tutorial
 Rated: ( 3 )  | 

Key A - 4/4 Time

Key A:
-----

    _ _   __   __ __   _
   | | | |  | |  |  | | |   |
e|-----5-7b-7-5h-7p-5---5-|--------|
B|-5-7----------------7---|--------|
G|------------------------|-5------|
D|------------------------|--------|
A|------------------------|--------|
E|------------------------|--------|

                   D9
    __ __   _ _ 
   |  |  | | | | | |
e|-----------------5-|
B|-----------------5-|
G|-4h-5p-4---4-----5-|
D|---------7---7---4-|
A|---------------5-5-|
E|-------------------|
Top
 
Previous Lick  Previous | Next  Next Lick