+
- 
My Guitar Songbook
Good Evening  |  Sign In 
BB King Lesson  

Info  |  Tutorial  |  Tab  |  Rate It  |  Share
BB King Lesson - Steve Trovato
 Arranged By: Steve Trovato
 Audio Src: Tutorial
 Rated: ( 3 )  | 

Key G - 4/4 Time

Key G:
-----

MAJOR (Box 4)
                 __ _ __    __ __   _
   |   | |  |   |  | |  |  |  |  | | |
e|------------|------8-10--------------|
B|10b-10-8-10-|10b--------10b---10-8---|
G|------------|----------------------9-|
D|------------|------------------------|
A|------------|------------------------|
E|------------|------------------------|
    _
   | |  |  |  |   |   |   |   |
e|10---------15\|---------------|
B|---8-(8)------|---------------|
G|--------------|---------------|
D|--------------|---------------|
A|--------------|---------------|
E|--------------|---------------|
Top
 
Previous Lick  Previous | Next  Next Lick