+
- 
My Guitar Songbook
Good Evening  |  Sign In 
Chicago Blues - Lesson 4  

Info  |  Tutorial  |  Tab  |  Rate It  |  Share
Chicago Blues - Lesson 4 - Anders Mouridsen
 Arranged By: Anders Mouridsen
 Audio Src: Tutorial
 Rated: ( 4 )  | 

Key E - 4/4 Time

    _   __ _         _   ___ ___ _ 
   | | |  | |   | | | | |   |   | |
e|------------|-------0-------------|
B|------------|---------------------|
G|------------|---------2b-(2)p-0---|
D|------------|-2-----------------2-|
A|-----0h-2---|---------------------|
E|---3------3-|---------------------|

        _   __ _ 
   | | | | |  | |   | | | |
e|----------------|---------|
B|----------------|---------|
G|----------------|---------|
D|----------------|---------|
A|---------0h-2---|---------|
E|-0-----3------3-|-0-------|


*:·..·:*¨¨*:·..·:*¨¨*:·..·:*¨¨*


Key A (Transposed - Original Key E):
-----

    _   __ _         _   ___ ___ _ 
   | | |  | |   | | | | |   |   | |
e|------------|-------5-------------|
B|------------|---------------------|
G|------------|---------7b-(7)p-5---|
D|------------|-7-----------------7-|
A|-----5h-7---|---------------------|
E|---8------8-|---------------------|

        _   __ _ 
   | | | | |  | |   | | | |
e|----------------|---------|
B|----------------|---------|
G|----------------|---------|
D|----------------|---------|
A|---------5h-7---|---------|
E|-5-----8------8-|-5-------|
Top
 
Previous Lick  Previous | Next  Next Lick