+
- 
My Guitar Songbook
Good Evening  |  Sign In 
Jimi Hendrix Style Lick  

Info  |  Tutorial  |  Tab  |  Rate It  |  Share
Jimi Hendrix Style Lick - Jody Worrell
 Arranged By: Jody Worrell
 Audio Src: Tutorial
 Rated: ( 9 )  | 

Key E - 4/4 Time

Key E:
-----

      _            _ _ _       _      ___     _
   | | |   |  |   | | | |   | | |    |   |   | | |
e|-------|----------------|---3-3-|--3---3---3-----|
B|-------|----3-----------|-----3-|--3---3---3-----|
G|---0-2-|-2b---4s2p0-----|-0-----|4h5-4h5-4h5p4---|
D|-2-----|------------2p0-|-------|--------------5-|
A|-------|----------------|-------|----------------|
E|-------|----------------|-------|----------------|


*:·..·:*¨¨*:·..·:*¨¨*:·..·:*¨¨*


Key A (Transposed - Original Key E):
-----

      _            _ _ _       _       _____      _
   | | |   |  |   | | | |   | | |     |     |    | |  |
e|-------|----------------|---8-8-|---8-----8----8------|
B|-------|----8-----------|-----8-|---8-----8----8------|
G|---5-7-|-7b---9s7p5-----|-5-----|9h10--9h10-9h10p9----|
D|-7-----|------------7p5-|-------|------------------10-|
A|-------|----------------|-------|---------------------|
E|-------|----------------|-------|---------------------|
Top
 
Previous Lick  Previous | Next  Next Lick