+
- 
My Guitar Songbook
Good Morning  |  Sign In 
SRV Style Lick 1  

Info  |  Tutorial  |  Tab  |  Rate It  |  Share
SRV Style Lick 1 - Robert Renman
 Arranged By: Robert Renman
 Audio Src: Tutorial
 Rated: ( 2 )  | 

Key E - 4/4 Time

Key E:
-----

    ___     __    __    ___ ___     __    __    __     ___ 
   |   |   |  |  |  |  |   |   |   |  |  |  |  |  |   |   |
e|--------12-------14-12h-13p-12-|------15-12----------------|
B|----12-----15-12---------------|15-12-------15-12----------|
G|14b----------------------------|-----------------pb14r(14)p|
D|-------------------------------|---------------------------|
A|-------------------------------|---------------------------|
E|-------------------------------|---------------------------|
    __
   |  |  |
e|----------|
B|----------|
G|12----12vv|
D|---14-----|
A|----------|
E|----------|



*:·..·:*¨¨*:·..·:*¨¨*:·..·:*



Key A (Transposed - Original Key E):
-----


    __   _   _   __ __     _   _   _     ___ 
   |  | | | | | |  |  |   | | | | | |   |   |
e|------5-----7-5h-6p-5-|-----8-5--------------|
B|----5---8-5-----------|-8-5-----8-5----------|
G|-7b-------------------|-------------pb7r-(7)p|
D|----------------------|----------------------|
A|----------------------|----------------------|
E|----------------------|----------------------|
    _ 
   | | |
e|--------|
B|--------|
G|-5---5vv|
D|---7----|
A|--------|
E|--------|
Top
 
Previous Lick  Previous | Next  Next Lick