+
- 
My Guitar Songbook
Good Morning  |  Sign In 
Hendrix Spanish Castle Magic Lesson  

Info  |  Tutorial  |  Tab  |  Rate It  |  Share
Hendrix Spanish Castle Magic Lesson - Robert Renman
 Arranged By: Robert Renman
 Audio Src: Tutorial
 Rated: ( 3 )  | 

Key C# - 4/4 Time

Key C#:
------

    __ _    __ _    __ _    __ _       __ _
   |  | |  |  | |  |  | |  |  | |     |  | |
e|----9---12b-9-------9---12b-9---| |12p-9---|
B|12b---9-------9-12b---9-------9-| |------9-|
G|--------------------------------| |--------|
D|--------------------------------| |--------|
A|--------------------------------| |--------|
E|--------------------------------| |--------|


*:·..·:*¨¨*:·..·:*¨¨*:·..·:*¨¨*


Key E (Transposed - Original Key C#):
-----

    __ _   __ _   __ _   __ _       __ _
   |  | | |  | | |  | | |  | |     |  | |
e|----0---3b-0------0---3b-0---| |-3p-0---|
B|-3b---0------0-3b---0------0-| |------0-|
G|-----------------------------| |--------|
D|-----------------------------| |--------|
A|-----------------------------| |--------|
E|-----------------------------| |--------|
Top
 
Previous Lick  Previous | Next  Next Lick