+
- 
My Guitar Songbook
Good Morning  |  Sign In 
Hendrix Fuzz Groove  

Info  |  Tutorial  |  Tab  |  Rate It  |  Share
Hendrix Fuzz Groove - Robert Renman
 Arranged By: Robert Renman
 Audio Src: Tutorial
 Rated: ( 2 )  | 

Key E - 4/4 Time

Key E:
-----

        _     __     _         _
   | | | |   |  |   | |   |   | |
e|-------0-|----------------------|
B|---------|----3-----------------|
G|---------|2s4---4s2-0h2h3p2p0---|
D|---------|--------------------2-|
A|---------|----------------------|
E|-----0---|----------------------|

    __       ___ _       _
   |  |   | |   | | |   | | |
e|--------------------|---0----|
B|----3-----------3-5-|--------|
G|2s4---4s2-0h2h4-----|--------|
D|--------------------|--------|
A|--------------------|--------|
E|--------------------|-0------|



*:·..·:*¨¨*:·..·:*¨¨*:·..·:*¨¨*



Key A (Transposed - Original Key E):
-----

        _     __     _         _
   | | | |   |  |   | |   |   | |
e|-------5-|----------------------|
B|---------|----8-----------------|
G|---------|7s9---9s7-5h7h8p7p5---|
D|---------|--------------------7-|
A|---------|----------------------|
E|-----5---|----------------------|

    __       ___ _        _
   |  |   | |   | |  |   | | |
e|---------------------|---5----|
B|----8-----------8-10-|--------|
G|7s9---9s7-5h7h9------|--------|
D|---------------------|--------|
A|---------------------|--------|
E|---------------------|-5------|
Top
 
Previous Lick  Previous | Next  Next Lick