My Guitar Songbook
Good Morning  |  Sign In 
D Minor Lick 

Lick Info  |  Tutorial  |  Tab  |  Rate
D Minor Lick - Robert Renman ( 1 )
 Key D - 4/4 Time
 Arranged By: Robert Renman
 Audio File From: Tutorial
Key D:
-----

    ___ __    ___ ___ __ __ __ ___    __ ___ __
   |   |  |  |   |   |  |  |  |   |  |  |   |  |  |
e|----10---------------------------------------------|
B|13b----13-10h-13p-10----10-13p-10------------------|
G|---------------------13-----------13-12p-10----10s-|
D|--------------------------------------------12-----|
A|---------------------------------------------------|
E|---------------------------------------------------|



*:·..·:*¨¨*:·..·:*¨¨*:·..·:*¨¨*



Key E (Transposed - Original Key D):
-----

    _ _   __ __ _ _ _ __   _ __ _
   | | | |  |  | | | |  | | |  | |  |
e|---0--------------------------------|
B|-3b--3-0h-3p-0---0-3p-0-------------|
G|---------------3--------3-2p-0----0-|
D|--------------------------------2---|
A|------------------------------------|
E|------------------------------------|
        
Lick Info  |  Tutorial  |  Tab (pdf)  |  Rate  | 
 
  Previous Lick  Previous | Next  Next Lick