+
- 
My Guitar Songbook
Good Evening  |  Sign In 
Classic Guitar Licks  

Info  |  Tutorial  |  Tab  |  Rate It  |  Share
Classic Guitar Licks - Jody Worrell
 Arranged By: Jody Worrell
 Audio Src: Tutorial
 Rated: ( 2 )  | 

Key A - 4/4 Time

Lick 1
------
     _ _      _ _ ___   _ ___ _     _ _ __   __
    | | |    | | |   | | |   | |   | | |  | |  | |
e|--------|4s5-5-5-4s5-5-5-4s5-5-|-5---------------|
B|----5-7-|4s5-5-5-4s5-5-5-4s5-5-|-5-8-7p-5--------|
G|5s6-----|----------------------|----------5h-6---|
D|--------|----------------------|-----------------|
A|--------|----------------------|-----------------|
E|--------|----------------------|-----------------|


Lick 2
------
     _ _ _             _ _ _ 
    | | | | | |   |   | | | |  | | |
e|4s5-5---------4s5-|-5-5--------5---|
B|4s5-5-7-5-5---4s5-|-5-5-7-5--5-5---|
G|------7-5h6-------|-----7-5h-6-----|
D|------------7-----|----------------|
A|------------------|----------------|
E|------------------|----------------|


Lick 3
------
       __ __ __    __ _ _        __ __ 
      |  |  |  |  |  | | |      |  |  | | |
e|11s12-12-10-10--9--9-7-7-|----------------|
B|13s14-14-12-12-10-10-8-8-|-9s10-10--9-8---|
G|-------------------------|10s11-11-10-9---|
D|-------------------------|----------------|
A|-------------------------|----------------|
E|-------------------------|----------------|


Lick 4
------
    _ _ _   _ _ _     _ _ _   _ _ _
   | | | | | | | |   | | | | | | | |   |
e|-5-5-------------|-----------------|-------|
B|-----8-7-5-------|-----------------|-------|
G|-----------7-5-6-|-----------------|-------|
D|-----------------|-7-7-5-4---------|-------|
A|-----------------|---------7-5-3-4-|-------|
E|-----------------|-----------------|-5-----|


Lick 5 (12/8)
------
     _ _     _ _     _ _     _ _       
    | | |   | | |   | | |   | | |   |  |  |  |
e|--------------------------------|------------|
B|7s8-8-8-7s8-8-8-7s8-8-8---7-7-7-|-5b---------|
G|8s9-9-9-7s9-9-9-7s9-9-9---/-/-/-|-5b---------|
D|--------------------------------|----7-------|
A|---------------------------------------------|
E|---------------------------------------------|
Top
 
Previous Lick  Previous | Next  Next Lick