+
- 
My Guitar Songbook
Good Morning  |  Sign In 
Funky 'A Minor' Blues Scale Lick  

Info  |  Tutorial  |  Tab  |  Rate It  |  Share
Funky 'A Minor' Blues Scale Lick - Robert Renman
 Arranged By: Robert Renman
 Audio Src: Tutorial
 Rated: ( 3 )  | 

Key A - 4/4 Time

Key A:
-----

    __   _ __ __
   |  | | |  |  | |
e|-8b-5--------------|
B|------5------------|
G|--------8s-7p-5----|
D|----------------7\-|
A|-------------------|
E|-------------------|

    __   _ __ __   _ _   _ _
   |  | | |  |  | | | | | | |
e|-8b-5-----------------------|
B|------5---------------------|
G|--------8s-7p-5---5---------|
D|----------------7---7-5---5-|
A|------------------------7---|
E|----------------------------|


*:·..·:*¨¨*:·..·:*¨¨*:·..·:*¨¨*


Key E (Transposed - Original Key A):
-----

    __   _ __ __         
   |  | | |  |  | | |
e|-3b-0---------------|
B|------0-------------|
G|--------3s-2p-0-----|
D|----------------2\--|
A|--------------------|
E|--------------------|

    __   _ __ __   _ _   _ _
   |  | | |  |  | | | | | | |
e|-3b-0-----------------------|
B|------0---------------------|
G|--------3s-2p-0---0---------|
D|----------------2---2-----0-|
A|------------------------2---|
E|----------------------------|
Top
 
Previous Lick  Previous | Next  Next Lick