+
- 
My Guitar Songbook
Good Morning  |  Sign In 
Steppin' Out Riff  

Info  |  Tutorial  |  Tab  |  Rate It  |  Share
Steppin' Out Riff - Bruce Lindquist
 Arranged By: Bruce Lindquist
 Audio Src: Tutorial
 Rated: ( 2 )  | 

Capo 1st Fret - 4/4 Time

Key A:
-----

Intro Riff:
----------

     G    A
               __            _     ___ 
     |    | | |  |  |    |  | |   |   | |
e|---3-|--5-5----------|----5-------------|
B|---3-|--5---8p-5-(5)-|------------------|
G|---4-|--6------------|-7b---7br(7)p-5---|
D|---5-|--7------------|----------------7-|
A|---5-|--7------------|------------------|
E|---3-|--5------------|------------------|


*:·..·:*¨¨*:·..·:*¨¨*:·..·:*


Riff 2:
------

     C    D
                 ___              __      ___ 
     |    |  |  |   |   |    |   |  |    |   |  |
e|---8-|-10-10-------------|----10----------------|
B|---8-|-10----13p-10-(10)-|----------------------|
G|---9-|-11----------------|12b----12br(12)p10----|
D|--10-|-12----------------|-------------------12-|
A|--10-|-12----------------|----------------------|
E|---8-|-10----------------|----------------------|



Introduction: "Intro Riff" (2 times)



Verse:  ("Intro Riff" at end of each line, "Riff 2" at end of 3rd line)
-----

G       A                                             G    A
Well, I had to leave town because of Uncle Sam's deal,
G       A                                             G    A
Well, I guess my good loving done lost its appeal,
C       D                                             C    D
Because when I come back I heard the bad, bad news,
G       A                                             G    A
They say our big romance has been getting abused.


Chorus:
------
            E
Oh, tell me true,
            D
Don't lie to me,
              B
Have you been step, step, step, step,
[E    /           /         G]               
Step, step, stepping out on me.


        A                                             G    A
I got ways of findin' out  (you been steppin' out on me)
G       A                                             G    A
Do me dirt and I'll give you a piece of my mind
Top
 
Previous Lick  Previous | Next  Next Lick