+
- 
My Guitar Songbook
Good Morning  |  Sign In 
Billy Gibbons Lesson  

Info  |  Tutorial  |  Tab  |  Rate It  |  Share
Billy Gibbons Lesson - Robert Renman
 Arranged By: Robert Renman
 Audio Src: Tutorial
 Rated: ( 4 )  | 

Key A - 4/4 Time

Key A:
-----

    _   _     _   ___   _
   | | | |   | | |   | | |   |
e|---------|-----5-------8b----|
B|---------|---5---s10------10-|
G|---7---5h|-6---------9-------|
D|-7---7---|-------------------|
A|---------|-------------------|
E|---------|-------------------|


*:·..·:*¨¨*:·..·:*¨¨*:·..·:*¨¨*



Key E (Transposed - Original Key A):
-----

    _   _     _   __   __
   | | | |   | | |  | |  |  |
e|---------|-----0-------3b---|
B|---------|---0---s5-------5-|
G|---2---0h|-1--------4-------|
D|-2---2---|------------------|
A|---------|------------------|
E|---------|------------------|
Top
 
Previous Lick  Previous | Next  Next Lick