+
- 
My Guitar Songbook
Good Evening  |  Sign In 
All Along the Watchtower Intro  

Info  |  Tutorial  |  Tab  |  Rate It  |  Share
All Along the Watchtower Intro - GuitarLessons365
 Arranged By: GuitarLessons365
 Audio Src: Tutorial
 Rated: ( 9 )  | 

Key B - 4/4 Time

Chords: C#m, B, A, B   (2 times)

        __    __       ___     ____       ___   __
   | | |  |  |  |     |   |   |    |     |   | |  |
e|-----------------|--------------------------------|
B|----------12-14b-|-14b-14b-14b-(14b)-b14br12------|
G|------s13--------|----------------------------s13-|
D|-----------------|--------------------------------|
A|-----------------|--------------------------------|
E|-----------------|--------------------------------|
     __    __   __   __      ___    ____    ___     __ 
    |  |  |  | |  | |  |    |   |  |    |  |   |   |  |
e|-----------------------|------------------------------|
B|-----------------------|------------------------------|
G|-11-11-11-11v-----9-11-|-11b-11-11b-(11b)--b11br-9----|
D|--------------s11------|---------------------------11-|
A|-----------------------|------------------------------|
E|-----------------------|------------------------------|
        _    __     __ 
       | |  |  | | |  |
e|------------------------|
B|9h11p9---12b-------12s\-|
G|-------9----------------|
D|------------------------|
A|------------------------|
E|------------------------|


NOTE: Someday I will learn the entire song
Top
 
Previous Lick  Previous | Next  Next Lick