+
- 
My Guitar Songbook
Good Evening  |  Sign In 
Rock Lick in B 

Rock Lick in B - Peter Vogl
 Arranged By: Peter Vogl
 Audio Src: Tutorial
 Download Video:  MP4
 Rated: ( 2 )  | 

Key B - 4/4 Time

Key B:
-----

    __ _    __ __ _    _ _ _   _ _
   |  | |  |  |  | |  | | | | | | |
e|------7----------7----------------|
B|----7---10p-7---------------------|
G|-9b-----------10---10-9-7---9-7---|
D|--------------------------9-----9-|
A|----------------------------------|
E|----------------------------------|



*:·..·:*¨¨*:·..·:*¨¨*:·..·:*¨¨*



Key E (Transcribed - Original Key B):
-----

    __ _    __ _ _   _ _ _   _ _
   |  | |  |  | | | | | | | | | |
e|------0---------0---------------|
B|----0----3p-0-------------------|
G|-2b-----------3---3-2-0-2---0---|
D|--------------------------2---2-|
A|--------------------------------|
E|--------------------------------|
Top
 
Previous Lick  Previous | Next  Next Lick