My Guitar Songbook
Good Evening  |  Sign In 
Blues on the Low Notes (163) 

Lick Info  |  Tutorial  |  Tab  |  Rate
Blues on the Low Notes (163) - Neal Walter ( 1 )
 Key C - Blues Scale - 4/4 Time
 Arranged By: Neal Walter
 Audio File From: Tutorial
   MINOR (Box 4)        MINOR (Box 3)
       __       ___         __ __ __   _     __ _ 
   |  |  |  |  |   |   | | |  |  |  | | |   |  | |  |
e|-------------------|--------------------|-----------|
B|-4b-4b-------------|--------------------|-----------|
G|-------5-(5)-3-----|-3-5----------------|-----------|
D|-----------------5-|-----3s-4s-3p-1-3-1-|-----------|
A|-------------------|--------------------|-3p-1-3-(3)|
E|-------------------|--------------------|-----------|



*:·..·:*¨¨*:·..·:*¨¨*:·..·:*¨¨*



Key A (Transposed - Original Key C):
-----

   MINOR (Box 4)          MINOR (Box 3)
        ___         __           ___ ___ ___    __     ___ __ 
   |   |   |   |   |  |   |  |  |   |   |   |  |  |   |   |  |   |
e|----------------------|---------------------------|--------------|
B|13b-13b---------------|---------------------------|--------------|
G|--------14-(14)-12----|12-14----------------------|--------------|
D|-------------------14-|------12s-13s-12p-10-12-10-|--------------|
A|----------------------|---------------------------|12p-10-12-(12)|
E|----------------------|---------------------------|--------------|
        
Lick Info  |  Tutorial  |  Tab (pdf)  |  Rate  | 
 
  Previous Lick  Previous | Next  Next Lick