+
- 
My Guitar Songbook
Good Morning  |  Sign In 
Boom Boom (John Lee Hooker) Lick  
  About  |  Tutorial  |  Tab (PDF)  |  Rate It  |  Share
Boom Boom (John Lee Hooker) Lick - Emanuel Hedberg       mp3
 About this Lick
 Tutorial & Tab by: Emanuel Hedberg
  Audio Clip from the Tutorial
 Rated: ( 3 ) |

 

Key E - Capo 4th Fret - 4/4 Time
12 Bar Progression
-----------------

   E
        _     _   _     _   _   _   _ 
   |   | |   | | | |   | | | | | | | |
e|-------------------|-----------------|
B|-------3-----------|-----------------|
G|---2s4---4s2-0-----|---------0---2---|
D|---------------2-0-|---2-----0---2-2-|
A|-------------------|---2-----------2-|
E|-------------------|-0-----0---0-----|

   E
    _   ___    __   _     _   _   _   _
   | | |   |  |  | | |   | | | | | | | |
e|---------------------|-----------------|
B|---------------------|-----------------|
G|-----0-3s2-(2)-0-----|---------0---2---|
D|---2-------------2-0-|---2-----0---2-2-|
A|---------------------|---2-----------2-|
E|---------------------|-0-----0---0-----|

   A
        _     _   _     _   _   _   _ 
   |   | |   | | | |   | | | | | | | |
e|-------------------|-----------------|
B|-------3-----------|-------------3---|
G|---2s4---4s2-0-----|---2-----5---2-2-|
D|---------------2-0-|---2-----5-----2-|
A|-------------------|-0-----0---0-----|
E|-------------------|-----------------|

   E
    _   ___    __   _     _   _   _   _
   | | |   |  |  | | |   | | | | | | | |
e|---------------------|-----------------|
B|---------------------|-----------------|
G|-----0-3s2-(2)-0-----|---------0---2---|
D|---2-------------2-0-|---2-----0---2-2-|
A|---------------------|---2-----------2-|
E|---------------------|-0-----0---0-----|

   B
        _     _   _     _   _   _   _
   |   | |   | | | |   | | | | | | | |
e|-------------------|-----------------|
B|-------3-----------|---------3---5---|
G|---2s4---4s2-0-----|---4-----2---4---|
D|---------------2-0-|---4-------------|
A|-------------------|-2-----2---2---0-|
E|-------------------|-----------------|

   A                   E
      _     _ _ ___     _   _   _   _
   | | | | | | |   |   | | | | | | | |
e|-------------------|-----------------|
B|-------------------|-----------------|
G|-------0-2-b-r-p-0-|---------0---2---|
D|---2-2-------------|---2-----0---2-2-|
A|-------------------|---2-----------2-|
E|-------------------|-0-----0---0-----|
Top
Previous Lick  Previous | Next  Next Lick