My Guitar Songbook
Good Afternoon   |  Sign In 
Boom Boom (John Lee Hooker)... 

  Lick Info  |  Tutorial  |  Tab  |  Rate  | 
Boom Boom (John Lee Hooker) Lick - Robert Renman
Boom Boom (John Lee Hooker) Lick - Robert Renman ( 3 )
 Key E - 4/4 Time
 Arranged By Robert Renman
 Audio File From Tutorial
12 Bar Progression
-----------------

   E
    _   _   _   _     _   _   _   _ 
   | | | | | | | |   | | | | | | | |
e|-----------------|-----0-0---------|
B|-------3---------|-----0-0-0---2---|
G|----s4--s2-0-----|-----1-1-0---2---|
D|-------------2-0-|-----2-2-0---2---|
A|-----------------|-----2-2-2---0---|
E|-0---------------|-0-------3-----3-|

   E
    _   _   _   _     _   _   _   _
   | | | | | | | |   | | | | | | | |
e|-----------------|-----0-0---------|
B|-----------------|-----0-0-0---2---|
G|-----0-2br-0-----|-----1-1-0---2---|
D|---2---------2-0-|-----2-2-0---2---|
A|-----------------|-----2-2-2---0---|
E|-0---------------|-0-------3-----3-|

   A
    _   _   _   _     _   _   _   _ 
   | | | | | | | |   | | | | | | | |
e|-----------------|-----------------|
B|-----3-0---------|-----2-2---------|
G|--------s2-0-----|-----2-2---------|
D|-------------2-0-|-----2-2---------|
A|-----------------|-0-----0-3---5-3-|
E|-0---------------|-----------------|

   E
    _   _   _   _     _   _   _   _
   | | | | | | | |   | | | | | | | |
e|-----------------|-----0-0---------|
B|-----------------|-----0-0-0---2---|
G|-----2b--2-0-----|-----1-1-0---2---|
D|-------------2-0-|-----2-2-0---2---|
A|-0---------------|-----2-2-2---0---|
E|-----------------|-0-------3-----3-|

   B 
    _   _   _   _     _   _   _   _
   | | | | | | | |   | | | | | | | |
e|-------0---------|-----------------|
B|-----------------|-----------------|
G|----s4--s2-0-----|-----2-2---------|
D|-------------2-0-|-----1-1-0---2-0-|
A|-----------------|-2---2-2---------|
E|-0---------------|-----------------|

   A                 E
    _   _   _   _     _   _   _   _ 
   | | | | | | | |   | | | | | | | |
e|-----------------|-----0-0---------|
B|-----------------|-----0-0-0---2---|
G|-----2b--2-0-----|-----1-1-0---2---|
D|-------------2-0-|-----2-2-0---2---|
A|-2---------------|-----2-2-2---0---|
E|-----------------|-0-------3-----3-|

Boom, boom, boom, boom
I'm gonna shoot you right down
Right off your feet
Take you home with me
Put you in my house

Boom, boom, boom, boom
I love to see you strut
Up and down the floor
And when you talking to me that baby talk

I like it like that
Oh, when you talk like that
You knocks me out
Right off of my feet
Hoo, hoo, hoo, whoa, yeah

Walk the walk baby
Talk that talk right now
And talk that talk right now, baby
Whoa, yeah

And talk that talk
And walk that walk
Walk the walk, baby
And talk that talk

And you whisper in my ear
I can't take it like that
You knocks me out
And when you talk like that
I can't take it like that

Oh, when you talk like that
You knocks me out
Right off of my feet
Hmm, hmm, hmm, hoo, hoo, hoo

Walk the walk baby
Talk that talk right now baby
You can talk that talk, baby
Talk that talk, that baby talk

Can't take it like that
No baby
        
  Lick Info  |  Tutorial  |  Tab  |  Rate  | 
 
  Previous Lick  Previous | Next  Next Lick   
Boom Boom (John Lee Hooker) Lick - Robert Renman

Please visit Robert Renman’s Tutorial for the original tab, full lesson, audio file and complete breakdown of this arrangement. All rights belong to the copyright holder.

Note: The tab portion of the PDF was transcribed from Robert Renman’s Tutorial.

 Tab (PDF)

Boom Boom (John Lee Hooker) Lick - Robert Renman
Boom Boom (John Lee Hooker) Lick - Robert Renman

Cool Riffs 1 - Fun Guitar Riffs (three lessons in one)

This is beginner to intermediate level – fun riffs to play that will be challenging for a complete beginner and just plain fun for an intermediate player. There are many techniques covered in this lesson; techniques that even intermediate players may need to work on.

Read More Read More





Adder: Bill Charrette [ willc ]
Date: 11/23/2013
Updated: 3/4/2014
Audio: Robert Renman’s Tutorial
Rated: (3 Ratings )
Views: 1641
Tab: 692 Downloads
Genre: Licks