+
- 
My Guitar Songbook
Good Evening  |  Sign In 
Boom Boom  

Info  |  Tutorial  |  Tab  |  Rate It  |  Share
Boom Boom - The Animals
  Artist: The Animals
 Audio Src: willc's Music Library
 Rated: ( 5 )  | 

Capo 1st Fret - 4/4 Time

Arranged By: Robert Renman (MasterGuitarAcademy.com)

Riff: Intro and Verses:
----------------------

   E
      _   _   _       _     _     _   _   _   _       _     _
   | | | | | | |   | | | | | |   | | | | | | | |   | | | | | |
e|---------------|---0-0-------|-----------------|---0-0-------|
B|-----3---------|---0-0-0-2---|-----------------|---0-0-0-2---|
G|--s4--s2-0-----|---1-1-0-2---|-----0-2br-0-----|---1-1-0-2---|
D|-----------2-0-|---2-2-0-2---|---2---------2-0-|---2-2-0-2---|
A|---------------|---2-2-2-0---|-----------------|---2-2-2-0---|
E|-0-------------|-0-----3---3-|-0---------------|-0-----3---3-|

   A                             E
      _   _   _       _     _          _   _       _     _
   | | | | | | |   | | | | | |   | |  | | | |   | | | | | |
e|---------------|-------------|--------------|---0-0-------|
B|---3-0---------|---2-2-------|--------------|---0-0-0-2---|
G|------s2-0-----|---2-2-------|---2b-2-0-----|---1-1-0-2---|
D|-----------2-0-|---2-2-------|----------2-0-|---2-2-0-2---|
A|---------------|-0---0-3-5-3-|-0------------|---2-2-2-0---|
E|-0-------------|-------------|--------------|-0-----3---3-|

   B                             A              E
      _   _   _       _     _          _   _       _     _
   | | | | | | |   | | | | | |   | |  | | | |   | | | | | |
e|-----0---------|-------------|--------------|---0-0-------|
B|---------------|-------------|--------------|---0-0-0-2---|
G|--s4--s2-0-----|---2-2-------|---2b-2-0-----|---1-1-0-2---|
D|-----------2-0-|---1-1-0-2-0-|----------2-0-|---2-2-0-2---|
A|---------------|-2-2-2-------|-2------------|---2-2-2-0---|
E|-0-------------|-------------|--------------|-0-----3---3-|


Intro

Boom boom boom boom
I'm gonna shoot you right down,
Take you in my arms
I'm in love with you
Love that is true
Boom boom boom boom


I like the way you talk
I like the way you walk
When you walk that walk
And you talk that talk
You knock me out
Right off of my feet


Chorus:
------

            E                     '
Come on and shake (Shake it baby)
            E                     '
Shake it up baby (Shake it baby)
            A                     '
Come on now baby (Shake it baby)
            E                     '
I don't mean maybe (Shake it baby)
            B7                    A
You're driving me crazy (Shake it baby)
            E                     B7
Come on come on (Shake it baby)


Come on and shake (Shake it baby)
Shake it up baby (Shake it baby)
Well Shake (Shake it baby)
I don't mean maybe (Shake it baby)
Come on come on (Shake it baby)
Alright alright (Shake it baby)


Lead Break (12 Bars)


The way you walk
The way you talk
When you walk that walk
And you when you talk that talk
You knock me out
Right off of my feet


I need you right now
I mean right now
I don't mean tomorrow
I mean right now
Come on come on
Come on and shake it up baby


Chorus:
Come on and shake (Shake up baby)
Shake it up baby (Shake up baby)
Come on now baby (Shake up baby)
Come on now baby (Shake up baby)
Come on and shake (Shake up baby)
Alright alright (Shake up baby)

Shake it baby (Shake it baby)
Come on and shake it (Shake it baby)
Come on and shake it baby (Shake it baby)
Come on and shake it (Shake it baby)
Come on and shake yeah (Shake it baby)
Alright alright alright (Shake it baby)

Fade out...
Top
 
Previous Song  Previous | Next  Next Song