+
- 
My Guitar Songbook
Good Evening  |  Sign In 
Blues Licks for Guitar (Lick 8)  

Info  |  Tutorial  |  Tab  |  Rate It  |  Share
Blues Licks for Guitar (Lick 8) - Pluck/Play Guitar
 Arranged By: Pluck/Play Guitar
 Audio Src: Tutorial
 Rated: ( 5 )  | 

Key A - 4/4 Time

             __   _    _   _ 
    |  | |  |  | | |  | | | |  |
e|-------------------------------|
B|----------------------5--------|
G|--7b---7b-7p-5---5h-7---5------|
D|---------------7----------7v---|
A|-------------------------------|
E|-------------------------------|


*:·..·:*¨¨*:·..·:*¨¨*:·..·:*¨¨*


Key E: (Transposed - original Key A)
-----

             __   _    _   _ 
    |  | |  |  | | |  | | | |  |
e|-------------------------------|
B|----------------------0--------|
G|--2b---2b-2p-0---0h-2---0------|
D|---------------2----------2v---|
A|-------------------------------|
E|-------------------------------|
Top
 
Previous Lick  Previous | Next  Next Lick