+
- 
My Guitar Songbook
Good Evening  |  Sign In 
Blues Licks for Guitar (Lick 15)  

Info  |  Tutorial  |  Tab  |  Rate It  |  Share
Blues Licks for Guitar (Lick 15) - Pluck/Play Guitar
 Arranged By: Pluck/Play Guitar
 Audio Src: Tutorial
 Rated: ( 3 )  | 

Key E - 4/4 Time

    _   _   _   ___   _
   | | | | | | |   | | | 
e|-----0-3-0-------------|-----------------|
B|---3-------0-----------|-----------------|
G|-4-----------3s2-0-----|-----------------|
D|-------------------2---|-----------------|
A|-----------------------|-----------------|
E|---------------------0-|-0vv-------------|


*:·..·:*¨¨*:·..·:*¨¨*:·..·:*¨¨*


Key A (Transposed - Original Key E):
-----

   A
    _   _   _   ___   _
   | | | | | | |   | | | 
e|-----5-8-5-------------|-----------------|
B|-5-8-------5-----------|-----------------|
G|-------------8s7-5-----|-----------------|
D|-------------------7---|-----------------|
A|-----------------------|-----------------|
E|---------------------5-|-5vv-------------|
Top
 
Previous Lick  Previous | Next  Next Lick